top separator

Home

Forum

What's New

Submit a Tab

FAQ

Links

Contact Us

Link to Us

MetalTabs.com logo

Bands

0-9

A

B

C

D

E

F

G

H

I

J

K

L

M

N

O

P

Q

R

S

T

U

V

W

X

Y

Z

Search

What

Where
 

Samael - "Year Zero" Guitar Tab

Plain Text Version
More Samael Tabs

Hits: 2951
Rated: 5.00 out of 5 (1 vote)
Updated: 2006-06-21 10:38:04

 

By:

sendpm.gif

email.gif

Important note
This tab is available online because we obtained explicit permission from Samael or their label.


#----------------------------------PLEASE NOTE---------------------------------#
#This file is the author's own work and represents their interpretation of the #
#song. You may only use this file for private study, scholarship, or research. #
#Unless specified otherwise, this is NOT an official tab from the band members.#
#------------------------------------------------------------------------------#

  Visit MetalTabs.com for more metal tablature
  
Band: Samael
Album: Eternal
Song: Year Zero

Copyright (c) Century Media Records 1999
Version 1.0 - 01.06.06

Transcribed By: eRyahXa0S/Darth Wojtex
Email: darthwojtex@interia.pl

~~ vibrato
b - bend
ah/nh - harmonics
ps - pick slide
t - tremolo
/ - slide
h - hammer on
p - pull of

Tuning D A F C G D (2 steps down)

intro (keys)

FEC#C 2x
FFAGFE 2x

riff1
|------------------|
|------------------|
|------------------|
|---------88888888-|
|-9999999966666666-|
|-77777777---------|

riff2

|-------------------------------|
|-------------------------------|
|-------------------------------|
|-7-7/9-----------7/9-----------|
|-5-5/7---2-2-5h7-5/7---2-2-5/4-|
|-------7-0-0---------7-0-0-3/2-|
                            ahah
|------------------------------|
|------------------------------|
|------------------------------|
|-7-7/9-----------7/9----------|
|-5-5/7---2-2-5h7-5/7---2-2-7-7|
|-------7-0-0---------7-0-0----|

|-----------------------------|
|-----------------------------|
|-----------------------------|
|-7-7/9-----------7/9---------|
|-5-5/7---2-2-5h7-5/7---2-5/4-|
|-------7-0-0---------7-0-3/2-|

|------------------------------------|
|------------------------------------|
|------------------------------------|
|-7-7/9-----------7/9----------------|
|-5-5/7---2-2-5h7-5/7---2-2------57--|
|-------7-0-0---------7-0-0-57877--8-|

riff 2a

|-------------------------------|
|-------------------------------|
|-------------------------------|
|-7-7/9-----------7/9-----------|
|-5-5/7---2-2-5h7-5/7---2-2-5/4-|
|-------7-0-0---------7-0-0-3/2-|

|---------------------------|
|---------------------------|
|---------------------------|
|-7-7/9-----------7/9-------|
|-5-5/7---2-2-5h7-5/7---2-2-|
|-------7-0-0---------7-0-0-|

riff3 x2

|---------------------------------|
|---------------------------------|
|---------------------------------|
|-999999------------9777777554444-|
|-7777771010101010107555555333222-|
|-------8-8-8-8-8-8---------------|


|----------------------------------------|
|----------------------------------------|
|----------------------------------------|
|-999999------------97777779101010101010-|
|-777777101010101010755555578-8-8-8-8-8--|
|-------8-8-8-8-8-8----------------------|


riff2

|-------------------------------|
|-------------------------------|
|-------------------------------|
|-7-7/9-----------7/9-----------|
|-5-5/7---2-2-5h7-5/7---2-2-5/4-|
|-------7-0-0---------7-0-0-3/2-|
                            ahah
|------------------------------|
|------------------------------|
|------------------------------|
|-7-7/9-----------7/9----------|
|-5-5/7---2-2-5h7-5/7---2-2-7-7|
|-------7-0-0---------7-0-0----|

|-----------------------------|
|-----------------------------|
|-----------------------------|
|-7-7/9-----------7/9---------|
|-5-5/7---2-2-5h7-5/7---2-5/4-|
|-------7-0-0---------7-0-3/2-|

|------------------------------------|
|------------------------------------|
|------------------------------------|
|-7-7/9-----------7/9----------------|
|-5-5/7---2-2-5h7-5/7---2-2------57--|
|-------7-0-0---------7-0-0-57877--8-|

riff 4

|------------------------------|
|------------------------------|
|------------------------------|
|-9999999977777777-------------|
|-7777777755555555101010109999-|
|-----------------8-8-8-8-7777-|

riff 5 x2

|--------------------------------------|
|--------------------------------------|
|--------------------------------------|
|-999999995555555544444444777101010109-|
|-7777777733333333222222225558-8-8-8-7-|
|--------------------------------------|

riff6 x2

|--------------------------------------|
|--------------------------------------|
|--------------------------------------|
|----------------2---------------------|
|-\2-2-2-2-2-2-3---2-2-2-2-2-2-44445---|
|-\0-0-0-0-0---------0-0-0-0-0-22223---|


key part


riff 7 x3
                                                 ah
|---------------------------------------------------|
|-10-12121212-10121012-1212-10-12121212-10-12-10-13-|
|---------------------------------------------------|
|---------------------------------------------------|
|---------------------------------------------------|
|---------------------------------------------------|

riff 1

|------------------|
|------------------|
|------------------|
|---------88888888-|
|-9999999966666666-|
|-77777777---------|

riff3 x2

|---------------------------------|
|---------------------------------|
|---------------------------------|
|-999999------------9777777554444-|
|-7777771010101010107555555333222-|
|-------8-8-8-8-8-8---------------|


|----------------------------------------|
|----------------------------------------|
|----------------------------------------|
|-999999------------97777779101010101010-|
|-777777101010101010755555578-8-8-8-8-8--|
|-------8-8-8-8-8-8----------------------|


riff 5 x2

|---------------|
|---------------|
|---------------|
|---------------|
|-2-2-2-3-2-5-0-|
|-0-0-0---------|


riff 2

|-------------------------------|
|-------------------------------|
|-------------------------------|
|-7-7/9-----------7/9-----------|
|-5-5/7---2-2-5h7-5/7---2-2-5/4-|
|-------7-0-0---------7-0-0-3/2-|
                            ahah
|------------------------------|
|------------------------------|
|------------------------------|
|-7-7/9-----------7/9----------|
|-5-5/7---2-2-5h7-5/7---2-2-7-7|
|-------7-0-0---------7-0-0----|

|-----------------------------|
|-----------------------------|
|-----------------------------|
|-7-7/9-----------7/9---------|
|-5-5/7---2-2-5h7-5/7---2-5/4-|
|-------7-0-0---------7-0-3/2-|

|------------------------------------|
|------------------------------------|
|------------------------------------|
|-7-7/9-----------7/9----------------|
|-5-5/7---2-2-5h7-5/7---2-2------57--|
|-------7-0-0---------7-0-0-57877--8-|

riff 2a

|-------------------------------|
|-------------------------------|
|-------------------------------|
|-7-7/9-----------7/9-----------|
|-5-5/7---2-2-5h7-5/7---2-2-5/4-|
|-------7-0-0---------7-0-0-3/2-|

|---------------------------|
|---------------------------|
|---------------------------|
|-7-7/9-----------7/9-------|
|-5-5/7---2-2-5h7-5/7---2-2-|
|-------7-0-0---------7-0-0-|

riff 8

|------------------------------------|
|------------------------------------|
|-----------55555555-----------------|
|---99999999--------7777777755555555-|
|-2----------------------------------|
|-0----------------------------------|

|--------------------------|
|--------------------------|
|---------5555555577777777-|
|-99999999-----------------|
|--------------------------|
|--------------------------|

riff 5 x2

|--------------------------------------|
|--------------------------------------|
|--------------------------------------|
|-999999995555555544444444777101010109-|
|-7777777733333333222222225558-8-8-8-7-|
|--------------------------------------|


riff6 x2

|--------------------------------------|
|--------------------------------------|
|--------------------------------------|
|----------------2---------------------|
|-\2-2-2-2-2-2-3---2-2-2-2-2-2-44445---|
|-\0-0-0-0-0---------0-0-0-0-0-22223---|

  Visit MetalTabs.com for more metal tablature

bottom separator

Contact Us | Privacy Policy | Disclaimer | Legal Notice
Copyright © 2001-2014 MetalTabs.com. All Rights Reserved.