top separator

Home

Forum

FAQ

Contact Us

Link to Us

MetalTabs.com logo

Bands

0-9

A

B

C

D

E

F

G

H

I

J

K

L

M

N

O

P

Q

R

S

T

U

V

W

X

Y

Z

Satyricon - "K.I.N.G" Guitar Tab

Plain Text Version
More Satyricon Tabs

Hits: 3575
Rated: 3.50 out of 5 (16 votes)
Updated: 2006-06-25 08:23:52

By:


#----------------------------------PLEASE NOTE---------------------------------#
#This file is the author's own work and represents their interpretation of the #
#song. You may only use this file for private study, scholarship, or research. #
#Unless specified otherwise, this is NOT an official tab from the band members.#
#------------------------------------------------------------------------------#

  Visit MetalTabs.com for more metal tablature
  
Band:  Satyricon
Album: Now, Diabolical
Song:  K.I.N.G.

Copyright (c)  Roadrunner(2006)
Version 1.0 -  2006

Transcribed By: Crixos
Email:          crixos@pobox.sk



.  - palm mute           /  - slide up to
\  - slide down to       ~  - vibrato
h  - hammer on           b  - Bend
p  - pull off            Suffixes for bend
t  - tap                 f  - full bend    h - half bend
ph - pinched harmonic    q  - quarter bend t - tap bend
*  - see comment         ^  - Hold bend    r release bend
x  - Stuccatto           ~  - vibrato bend
,  - slight palm mute    () - ghost note, sustained note
"  - tremolo note        <> - Trill



Tuning E A D G B E

Intro

e|----------------------------------------|
h|----------------------------------------|
g|--6-6-6-9-6-6-8-6-4-6-6-6-5-6-6-6-------|
D|--6-6-6-6-6-6-6-6-4-6-6-6-4-6-6-6-------|     repeat 4-x
A|----------------------------------------|
E|----------------------------------------|


Verse

First guitar
e|----------------------------------------|
h|----------------------------------------|
g|--6-6-6-9-6-6-8-6-4-6-7-6-5-5-5-5-------|
D|--6-6-6-6-6-6-6-6-4-6-7-6-5-5-5-5-------|     repeat 2-x
A|----------------------------------------|
E|----------------------------------------|


Interlude

First and second guitar
e|----------------------------------------|
h|----------------------------------------|
g|----------------------------------------|
D|--6-6-6-9-9-8-8-4-4-7-------------------|     repeat 4-x
A|--4-4-4-7-7-6-6-2-2-5-------------------|
E|--4-4-4-7-7-6-6-2-2-5------------------|


Verse

First guitar
e|----------------------------------------|
h|----------------------------------------|
g|--6-6-6-9-6-6-8-6-4-6-7-6-5-5-5-5-------|
D|--6-6-6-6-6-6-6-6-4-6-7-6-5-5-5-5-------|     repeat 8-x
A|----------------------------------------|
E|----------------------------------------|



Second guitar
e|----------------------------------------|
h|----------------------------------------|
g|----------------------------------------|
D|--6-6-6-9-6-6-8-6-4-6-7-6-5-5-5-5-------|     repeat 8-x
A|--4-4-4-7-4-4-6-4-2-4-5-4-3-3-3-3-------|
E|----------------------------------------|


Chorus

First and second guitar
e|----------------------------------------|
h|----------------------------------------|
g|------------------------2---4-4-6-------|
D|--6-6-6-5---6-4-6-4-4-4-0---2-2-4-------|     repeat 4-x
A|--4-4-4-7---4-2-2-2-2-2-0---2-2-4-------|
E|--4-4-4-7---4-2-2-2-2-2-----------------|



Verse

First guitar
e|----------------------------------------|
h|----------------------------------------|
g|--6-6-6-9-6-6-8-6-4-6-7-6-5-5-5-5-------|
D|--6-6-6-6-6-6-6-6-4-6-7-6-5-5-5-5-------|     repeat 8-x
A|----------------------------------------|
E|----------------------------------------|

Second guitar
e|----------------------------------------|
h|----------------------------------------|
g|----------------------------------------|
D|--6-6-6-9-6-6-8-6-4-6-7-6-5-5-5-5-------|     repeat 8-x
A|--4-4-4-7-4-4-6-4-2-4-5-4-3-3-3-3-------|
E|----------------------------------------|


Chorus

First and second guitar
e|----------------------------------------|
h|----------------------------------------|
g|------------------------2---4-4-6-------|
D|--6-6-6-5---6-4-6-4-4-4-0---2-2-4-------|     repeat 4-x
A|--4-4-4-7---4-2-2-2-2-2-0---2-2-4-------|
E|--4-4-4-7---4-2-2-2-2-2-----------------|


Interlude

First and second guitar
e|----------------------------------------|
h|----------------------------------------|
g|----------------------------------------|
D|--6-6-6-9-9-8-8-4-4-7-------------------|     repeat 4-x
A|--4-4-4-7-7-6-6-2-2-5-------------------|
E|--4-4-4-7-7-6-6-2-2-5-------------------|


Solo

First guitar
e|----------------------------------------|
h|----------------------------------------|
g|----------------------------------------|
D|------6~~~------------------------------|     repeat 4-x
A|----------------------------------------|
E|----------------------------------------|

Second guitar
e|----------------------------------------|
h|----------------------------------------|
g|----------------------------------------|
D|----------------------------------------|     repeat 4-x
A|--6-6------2-2-2-4---9-9---4-4-7--------|
E|--4-4------0-0-0-2---7-7---2-2-5--------|


First guitar
e|----------------------------------------|
h|----------------------------------------|
g|----------------------------------------|
D|--6------------------9-----4-4-7--------|     repeat 2-x
A|----------------------------------------|
E|----------------------------------------|

Second guitar
e|----------------------------------------|
h|----------------------------------------|
g|----------------------------------------|
D|----------------------------------------|     repeat 2-x
A|--6-6------2-2-2-4---9-9---4-4-7--------|
E|--4-4------0-0-0-2---7-7---2-2-5--------|






First guitar
e|----------------------------------------|
h|----------------------------------------|
g|---------------------------7-7-7--------|
D|--6------------------9------------------|     repeat 1-x
A|----------------------------------------|
E|----------------------------------------|

Second guitar
e|----------------------------------------|
h|----------------------------------------|
g|----------------------------------------|
D|----------------------------------------|     repeat 1-x
A|--6-6------2-2-2-4---9-9---4-4-7--------|
E|--4-4------0-0-0-2---7-7---2-2-5--------|


First guitar
e|----------------------------------------|
h|----------------------------------------|
g|--8------------------11----141414-------|
D|----------------------------------------|     repeat 1-x
A|----------------------------------------|
E|----------------------------------------|

Second guitar
e|----------------------------------------|
h|----------------------------------------|
g|----------------------------------------|
D|----------------------------------------|     repeat 1-x
A|--6-6------2-2-2-4---9-9---4-4-7--------|
E|--4-4------0-0-0-2---7-7---2-2-5--------|


Verse

Second guitar
e|----------------------------------------|
h|----------------------------------------|
g|--6-6-6-9-6-6-8-6-4-6-7-6-5-5-5-5-------|
D|--6-6-6-6-6-6-6-6-4-6-7-6-5-5-5-5-------|     repeat 4-x
A|----------------------------------------|
E|----------------------------------------|

First guitar
e|----------------------------------------|
h|----------------------------------------|
g|--13------------------------------------|
D|----------------------------------------|     repeat 1-x
A|----------------------------------------|
E|----------------------------------------|
Chorus

First and second guitar
e|----------------------------------------|
h|----------------------------------------|
g|------------------------2---4-4-6-------|
D|--6-6-6-5---6-4-6-4-4-4-0---2-2-4-------|     repeat 4-x
A|--4-4-4-7---4-2-2-2-2-2-0---2-2-4-------|
E|--4-4-4-7---4-2-2-2-2-2-----------------|



Verse

First guitar
e|----------------------------------------|
h|----------------------------------------|
g|--6-6-6-9-6-6-8-6-4-6-7-6-5-5-5-5-------|
D|--6-6-6-6-6-6-6-6-4-6-7-6-5-5-5-5-------|     repeat 1-x
A|----------------------------------------|
E|----------------------------------------|

Interlude

First and second guitar
e|----------------------------------------|
h|----------------------------------------|
g|----------------------------------------|
D|--6-6-6-9-9-8-8-4-4-7-------------------|     repeat 4-x
A|--4-4-4-7-7-6-6-2-2-5-------------------|
E|--4-4-4-7-7-6-6-2-2-5-------------------|


This is my first tab, so please RATE IT.
If you find any mistakes... if you have any questions...
...my e-mail is crixos@pobox.sk

The END.

  Visit MetalTabs.com for more metal tablature

bottom separator

Contact Us | Privacy Policy | Disclaimer
Copyright © 2001-2014 MetalTabs.com. All Rights Reserved.