top separator

Home

Forum

What's New

Submit a Tab

FAQ

Links

Contact Us

Link to Us

MuSpy.com

MetalTabs.com logo

Bands

0-9

A

B

C

D

E

F

G

H

I

J

K

L

M

N

O

P

Q

R

S

T

U

V

W

X

Y

Z

Search

What

Where
 

Avulsed - "Foetivorous Marriage" Guitar Tab

Plain Text Version
More Avulsed Tabs

Hits: 1871
Rated: 5.00 out of 5 (1 vote)
Updated: 2006-06-21 10:23:28

 

By:

Robbie Filth

sendpm.gif

email.gif

Important note
This tab is available online because we obtained explicit permission from Avulsed or their label.


#----------------------------------PLEASE NOTE---------------------------------#
#This file is the author's own work and represents their interpretation of the #
#song. You may only use this file for private study, scholarship, or research. #
#Unless specified otherwise, this is NOT an official tab from the band members.#
#------------------------------------------------------------------------------#

  Visit MetalTabs.com for more metal tablature
  
Band: Avulsed
Album: Yearning for the Grotesque
Song: Foetivorous Marriage
Record Label: Avantgarde music
Tuning: C F A# D# G C

------------------------------------------
------------------------------------------
------------------------------------------
----------------------------------0-3-ph--
-2222222222222222-4h5p4h5-1-0-1-4-----3---
-0000000000000000-------------------------X3
 pm..............

---------------------------------------------------
---------------------------------------------------
---------------------------------------------------
----------------------------------0-3-ph-----------
-2222222222222222-4h5p4h5-1-0-1-4-----3--2-2--2-2--
-0000000000000000------------------------0-0--0-0--
 pm..............

----------------------------------
----------------------------------
----------------------------------
-----------------0-3-ph-----------
-4h5p4h5-1-0-1-4-----3--2-2--2-2--
------------------------0-0--0-0--X3

------------------------------------------
------------------------------------------
------------------------------------------
----------------------------------0-3-ph--
-2222222222222222-4h5p4h5-1-0-1-4-----3---
-0000000000000000-------------------------X3
 pm..............

---------------------------------------
---------------------------------------
---------------------------------------
----------------------------------0-3--
-2222222222222222-4h5p4h5-1-0-1-4------
-0000000000000000----------------------
 pm..............

------------------------------------------------------------------
------------------------------------------------------------------
---------------------------------------------------------4-2------
---2-1-4-2-5-4-5-------------------2-1-4-2-5-4-5---5-4-5-----5-4--
-------------------------2-0--------------------------------------
-0---------------0-3-2-3-----3-2-0---------------0----------------
pm               .               .               .

------------------------------------------------------------------
------------------------------------------------------------------
------------------------------------------------------------------
---2-1-4-2-5-4-5---------2-0-------2-1-4-2-5-4-5---------5-4------
-0---------------0-3-2-3-----3-2-3---------------3-7-6-7-----7-6--
------------------------------------------------------------------
pm               .               .               .

--------------------------------------------------
--------------------------------------------------
--------------------------------------------------
--------------------------------------------------
-3-222-2----3-222-2----3-222-2----3-222-2--7-5-8--
-1-000-0----1-000-0----1-000-0----1-000-0--5-3-6--X2
   pm.        ...        ...        ...

------------------------------------------------------------------
------------------------------------------------------------------
---------------------------------------------------------4-2------
---2-1-4-2-5-4-5-------------------2-1-4-2-5-4-5---5-4-5-----5-4--
-------------------------2-0--------------------------------------
-0---------------0-3-2-3-----3-2-0---------------0----------------
pm               .               .               .

------------------------------------------------------------------
------------------------------------------------------------------
------------------------------------------------------------------
---2-1-4-2-5-4-5---------2-0-------2-1-4-2-5-4-5---------5-4------
-0---------------0-3-2-3-----3-2-3---------------3-7-6-7-----7-6--
------------------------------------------------------------------
pm               .               .               .

------------------------------------------
------------------------------------------
------------------------------------------
----------------------------------0-3-ph--
-2222222222222222-4h5p4h5-1-0-1-4-----3---
-0000000000000000-------------------------X3
 pm..............

---------------------------------------
---------------------------------------
---------------------------------------
----------------------------------0-3--
-2222222222222222-4h5p4h5-1-0-1-4------
-0000000000000000----------------------
 pm..............

-----------------------------------------
-----------------------------------------
-----------------------------------------
-6----7-------0------6----7-------0------
-8----5--2--2---2----8----5--2--2---2----
---------0--------1----------0--------1--X4

---------------------------------------------
---------------------------------------------
----------------vib--------------------------
------------2---4------^--2--1---------------
-2--------3---3--------2--------3--2----1----
-0-------------------------------------------X2
vib = vibrato
^ = bend up slowly and go back down slowly.

-----------------------------------------
-----------------------------------------
-----------------------------------------
-6----7-------0------6----7-------0------
-8----5--2--2---2----8----5--2--2---2----
---------0--------1----------0--------1--X2

--------------------------------------------------
--------------------------------------------------
--------------------------------------------------
--------------------------------------------------
-3-222-2----3-222-2----3-222-2----3-222-2--7-5-8--
-1-000-0----1-000-0----1-000-0----1-000-0--5-3-6--X4
   pm.        ...        ...        ...

-------------------------------------------------------------------
-------------------------------------------------------------------
-------------------------------------------------------------------
-2-------1-------5-------2-4-2-1--2-------1-------5-------2-4-2-1--
-------------------------------------------------------------------
---0000----0000----0000-------------0000----0000----0000-----------
   pm..    ....    ....             ....    ....    ....

-------------------------------------------------------------------
-------------------------------------------------------------------
-2-------1-------5-------2-4-2-1--2-------1-------5-------2-4-2-1--
-------------------------------------------------------------------
---0000----0000----0000-------------3333----3333----3333-----------
-------------------------------------------------------------------
   pm..    ....    ....             ....    ....    ....

-------------------------------------------------------------------
-------------------------------------------------------------------
-------------------------------------------------------------------
-2-------1-------5-------2-4-2-1--2-------1-------5-------2-4-2-1--
-------------------------------------------------------------------
---0000----0000----0000-------------0000----0000----0000-----------
   pm..    ....    ....             ....    ....    ....

-------------------------------------------------------------------
-------------------------------------------------------------------
-2-------1-------5-------2-4-2-1--2-------1-------5-------2-4-2-1--
-------------------------------------------------------------------
---3333----3333----3333-------------0000----0000----0000-----------
-------------------------------------------------------------------
   pm..    ....    ....             ....    ....    ....

----------------------------------------
----------------------------------------
----------------------------------------
----------------8----5----8-7-4---------
-2----10-9-6----6----3----6-5-2----4----
-0-----8-7-4-----------------------2----X4
      pm .                . .

--------------------------------------------------------------
--------------------------------------------------------------
--------------------------------------------------------------
-55555555555555551111111111111111-----------------3-22222222--
-77777777666666663333333333333333-111111114444444-5-44444444--
----------------------------------333333336666666-------------X2
 trem.......................................................

------------------------------------------------------------------
------------------------------------------------------------------
---------------------------------------------------------4-2------
---2-1-4-2-5-4-5-------------------2-1-4-2-5-4-5---5-4-5-----5-4--
-------------------------2-0--------------------------------------
-0---------------0-3-2-3-----3-2-0---------------0----------------
pm               .               .               .

------------------------------------------------------------------
------------------------------------------------------------------
------------------------------------------------------------------
---2-1-4-2-5-4-5---------2-0-------2-1-4-2-5-4-5---------5-4------
-0---------------0-3-2-3-----3-2-3---------------3-7-6-7-----7-6--
------------------------------------------------------------------
pm               .               .               .

-----------------------------------------
-----------------------------------------
-----------------------------------------
-6----7-------0------6----7-------0------
-8----5--2--2---2----8----5--2--2---2----
---------0--------1----------0--------1--X2

---------------------------------------------
---------------------------------------------
----------------vib--------------------------
------------2---4------^--2--1---------------
-2--------3---3--------2--------3--2----1----
-0-------------------------------------------X3
vib = vibrato
^ = bend up slowly and go back down slowly.

On 3rd time there is a harmony.
----------------------------------------
---------------vib----------------------
-----------4---6------4--3--------------
---------5---5-----^--------------------
-2-----------------2-------3--2----1----
-0--------------------------------------


THE END

any corrections mail em to: septic_flesh241@hotmail.com

  Visit MetalTabs.com for more metal tablature

bottom separator

Contact Us | Privacy Policy | Disclaimer | Legal Notice
Copyright © 2001-2014 MetalTabs.com. All Rights Reserved.