top separator

Home

Forum

What's New

Submit a Tab

FAQ

Links

Contact Us

Link to Us

MetalTabs.com logo

Bands

0-9

A

B

C

D

E

F

G

H

I

J

K

L

M

N

O

P

Q

R

S

T

U

V

W

X

Y

Z

Search

What

Where
 

Avulsed - "Bodily Ransack" Guitar Tab

Plain Text Version
More Avulsed Tabs

Hits: 1721
Rated: 5.00 out of 5 (1 vote)
Updated: 2006-06-21 10:23:00

 

By:

Robbie Filth

sendpm.gif

email.gif

Important note
This tab is available online because we obtained explicit permission from Avulsed or their label.


#----------------------------------PLEASE NOTE---------------------------------#
#This file is the author's own work and represents their interpretation of the #
#song. You may only use this file for private study, scholarship, or research. #
#Unless specified otherwise, this is NOT an official tab from the band members.#
#------------------------------------------------------------------------------#

  Visit MetalTabs.com for more metal tablature
  
Band: Avulsed
Album: Eminence In Putresence
Song: Bodily Ransack
Record Label: Repulse Records
Tuning: C F A# D# G C

----------------------------
----------------------------
----------------------------
-----------------------8----
-----5-----6-----5-----6-7--
-2-4---2-5---2-4---2-5---5--X2
 trem.................

*drum fill*

----------------------------
----------------------------
----------------------------
-----------------------8----
-----5-----6-----5-----6-7--
-2-4---2-5---2-4---2-5---5--X4
 trem.................

-----------------------------------
-----------------------------------
-----------------------------------
-----------------------------------
-444-7-6-333-6-5--444-7-6-333-6-5--
-----5-4-----4-3------5-4-----4-3--X2
     pm.     . .      . .     . .

----------------------------
----------------------------
----------------------------
-----------------------8----
-----5-----6-----5-----6-7--
-2-4---2-5---2-4---2-5---5--X4
 trem.................

-----------------------------------
-----------------------------------
-----------------------------------
-----------------------------------
-444-7-6-333-6-5--444-7-6-333-6-5--
-----5-4-----4-3------5-4-----4-3--X2
     pm.     . .      . .     . .

------------------------------------
------------------------------------
---------------ph---------------ph--
---------------4----------------7---
-4-444-4-5-555----4-444-4-7-777-----
-2-222-2-3-333----2-222-2-5-555-----X4
   pm. .   ...      ... .   ...

------------------------------------
------------------------------------
------------------------------------
------------------------------------
-4-4-4-4-4444--55-4-4-4-4-5555--66--
-2-2-2-2-----33---2-2-2-2-----55----X4
 pm. . .          . . . .

-------------------------------------
-------------------------------------
-------------------------------------
-------------------------------------
-----4444-----5555-7777666633334444--
-2222-----3333-----------------------X4
 pm..     ....

----------------------------------------------------
----------------------------------------------------
----------------------------------------------------
----------------------------------------------------
-4-4-4-4----4-4-4-4----4-4-4-4----4-4-4-4-5555--66--
-2-2-2-2----2-2-2-2----2-2-2-2----2-2-2-2-----55----
 pm. . .    . . . .    . . . .    . . . .
in every gap bass fills.

------------------------------------
------------------------------------
------------------------------------
------------------------------------
-4-4-4-4-4444--55-4-4-4-4-5555--66--
-2-2-2-2-----33---2-2-2-2-----55----X3
 pm. . .          . . . .

----------------------------------------
----------------------------------------
----------------------------------------
----------------------------------------
-4-4-4-4-4444--55-4-4-4-4-5555--66-4----
-2-2-2-2-----33---2-2-2-2-----55---2----
 pm. . .          . . . .          let ring.

----------------------------------
----------------------------------
----------------------------------
------10------------------4-------
-9----8----8----9----5----2--4----
-7---------6----7----3-------2----X8

----------------------------
----------------------------
----------------------------
-----------------------8----
-----5-----6-----5-----6-7--
-2-4---2-5---2-4---2-5---5--X5
 trem.................

-----------------------------------
-----------------------------------
-----------------------------------
-----------------------------------
-444-7-6-333-6-5--444-7-6-333-6-5--
-----5-4-----4-3------5-4-----4-3--X2
     pm.     . .      . .     . .

-------------------
-------------------
---------------ph--
---------------4---
-4-444-4-5-555-----
-2-222-2-3-333-----
   pm. .   ...

THE END

any correction mail em to: septic_flesh241@hotmail.com

  Visit MetalTabs.com for more metal tablature

bottom separator

Contact Us | Privacy Policy | Disclaimer | Legal Notice
Copyright © 2001-2014 MetalTabs.com. All Rights Reserved.