top separator

Home

Forum

What's New

Submit a Tab

FAQ

Links

Contact Us

Link to Us

MuSpy.com

MetalTabs.com logo

Bands

0-9

A

B

C

D

E

F

G

H

I

J

K

L

M

N

O

P

Q

R

S

T

U

V

W

X

Y

Z

Search

What

Where
 

Primordial - "The Burning Season" Guitar Tab

Plain Text Version
More Primordial Tabs

Hits: 2621
Rated: 5.00 out of 5 (3 votes)
Updated: 2006-06-21 10:22:04

 

By:

sendpm.gif

email.gif

Important note
This tab is available online because we obtained explicit permission from Primordial or their label.


#----------------------------------PLEASE NOTE---------------------------------#
#This file is the author's own work and represents their interpretation of the #
#song. You may only use this file for private study, scholarship, or research. #
#Unless specified otherwise, this is NOT an official tab from the band members.#
#------------------------------------------------------------------------------#

  Visit MetalTabs.com for more metal tablature
  
PRIMORDIAL - THE BURNING SEASON

FROM THE ALBUM ‘SPIRIT THE EARTH AFLAME’

Copyright (c) Hammerheart records 2000

VERSION 1.1 - May ‘06

TRANSCRIBED BY MICK FLYNN
EMAIL: mickflynn2@hotmail.com

\ slide down
/ slide up
v pick/strum downwards
^ pick/strum upwards

Explanation of timing/rhythm
The timing is in 6/8 like most Primordial songs
In 4/4 the count is | 1 - 2 - 3 - 4 | 1 - 2 - 3 - 4|(quarter notes)
                    | 1 & 2 & 3 & 4 &|1 & 2 & 3 & 4 &| (eighth notes)

In 6/8 the count per bar is | 1 2 3 4 5 6 |1 2 3 4 5 6 |(quarter notes)
or |1&2&3&4&5&6&|1&2&3&4&5&6&| (sixteenth notes)

Example of rhythms in The Burning Season-
     Count:|1 2&3 4(5)6|1 2&3 4 5&6|
      Pick: v v^v v   v v v^v v v^v

     Count:|1 2&3 4 5&6|1 2&3 4 5&6|
      Pick: v v^v v v^v v v^v v v^v

Most chords in the song are bar chords like Am(A minor),
AM (A major),Gm,FM,so first finger of left hand frets all six strings

Any questions,or if youre looking for other Primordial tabs
 email me at- mickflynn2@hotmail.com

Tuning - E A D G B E

RIFF 1 (GTR 1&2) REPEAT X 5
E-------------------------|-------------------------|
B-------------------------|-------------------------|
G-------------------------|-------------------------|
D-7-7-7-7-7-7-7-7-7-7-7-7-|-7-7-7-7-7-7-8-8-8-8-5-5-|
A-0-0-0-0-0-0-0-0-0-0-0-0-|-0-0-0-0-0-0-0-0-0-0-0-0-|
E-5-5-5-5-5-5-5-5-5-5-5-5-|-5-5-5-5-5-5-6-6-6-6-3-3-|
  1 & 2 & 3 & 4 & 5 & 6 & etc
  v ^ v ^ v ^ v ^ v ^ v ^ etc
E-------------------------|-------------------------|
B-------------------------|-------------------------|
G-------------------------|-------------------------|
D-7-7-7-7-7-7-7-7-7-7-7-7-|-7-7-7-7-7-7-8-8-8-8-5-5-|
A-0-0-0-0-0-0-0-0-0-0-0-0-|-0-0-0-0-0-0-0-0-0-0-0-0-|
E-5-5-5-5-5-5-5-5-5-5-5-5-|-5-5-5-5-5-5-6-6-6-6-3-3-|

E-------------------------|-------------------------|
B-------------------------|-------------------------|
G-------------------------|-------------------------|
D-7-7-7-7-7-7-7-7-7-7-7-7-|-8-8-8-8-8-8-8-8-8-8-8-8-|
A-0-0-0-0-0-0-0-0-0-0-0-0-|-0-0-0-0-0-0-0-0-0-0-0-0-|
E-5-5-5-5-5-5-5-5-5-5-5-5-|-6-6-6-6-6-6-6-6-6-6-6-6-|

E-------------------------------|-------------------------|
B-------------------------------|-------------------------|
G-------------10-10-10-10-10-10-|-7-7-7-7-7-7-9-9-9-9-9-9-|
D-5-5-5-5-5-5-0--0--0--0--0--0--|-0-0-0-0-0-0-0-0-0-0-0-0-|
A-0-0-0-0-0-0-8--8--8--8--8--8--|-5-5-5-5-5-5-7-7-7-7-7-7-|
E-3-3-3-3-3-3-------------------|-------------------------|

E-------------------------------------|
B-------------------------------------|
G-------------------------------------|
D-13-13-13-13-13-13-13-13-13-13-13-13-|
A-0--0--0--0--0--0--0--0--0--0--0--0--|
E-11-11-11-11-11-11-11-11-11-11-11-11-|

E-------------------------------------|
B-------------------------------------|
G-------------------------------------|
D-13-13-13-13-13-13-14-14-14-14-10-10-|
A-0--0--0--0--0--0--0--0--0--0--0--0--|
E-11-11-11-11-11-11-12-12-12-12-8--8--|

E-------------------------------------|
B-------------------------------------|
G-------------------------------------|
D-13-13-13-13-13-13-13-13-13-13-13-13-|
A-0--0--0--0--0--0--0--0--0--0--0--0--|
E-11-11-11-11-11-11-11-11-11-11-11-11-|

E-------------------------------------|
B-------------------------------------|
G-------------------------------------|
D-14-14-14-14-14-14-14-14-14-14-14-14-|
A-0--0--0--0--0--0--0--0--0--0--0--0--|
E-12-12-12-12-12-12-12-12-12-12-12-12-|

***(GTR 2 PLAYS FILL 1 HERE ON THE 3RD REPEAT OF RIFF 1)
E-------------------------------------|
B-------------------------------------|
G-------------------------------------|
D-10-10-10-10-10-10-10-10-10-10-10-10-|
A-0--0--0--0--0--0--0--0--0--0--0--0--|
E-8--8--8--8--8--8--8--8--8--8--8--8--|

E-------------------------------------|
B-------------------------------------|
G-------------------------------------|
D-10-10-10-10-10-10-11-11-11-11-8--8--|
A-0--0--0--0--0--0--0--0--0--0--0--0--|
E-8--8--8--8--8--8--9--9--9--9--6--6--|

E-------------------------------------|
B-------------------------------------|
G-------------------------------------|
D-10-10-10-10-10-10-10-10-10-10-10-10-|
A-0--0--0--0--0--0--0--0--0--0--0--0--|
E-8--8--8--8--8--8--8--8--8--8--8--8--|





E--------------------------------------|
B--------------------------------------|
G--------------------------------------| END OF RIFF 1
D-11-11-11-11-11-11-11-11-11-11-11-11--|
A-0--0--0--0--0--0--0--0--0--0--0--0---|
E-9--9--9--9--9--9--9--9--9--9--9--9---|


*FILL 1 (GTR 2)
E-------------------------------------|
B-------------------------------------|
G-------------------------------------|
D-17-17-17-17-17-17-17-17-17-17-17-17-|
A-0--0--0--0--0--0--0--0--0--0--0--0--|
E-15-15-15-15-15-15-15-15-15-15-15-15-|

E-------------------------------------|
B-------------------------------------|
G-------------------------------------|
D-17-17-17-17-17-17-18-18-18-18-13-13-|
A-0--0--0--0--0--0--0--0--0--0--0--0--|
E-15-15-15-15-15-15-16-16-16-16-11-11-1

E-------------------------------------|
B-------------------------------------|
G-------------------------------------|
D-17-17-17-17-17-17-17-17-17-17-17-17-|
A-0--0--0--0--0--0--0--0--0--0--0--0--|
E-15-15-15-15-15-15-15-15-15-15-15-15-|

E-------------------------------------|
B-------------------------------------|
G-------------------------------------|
D-18-18-18-18-18-18-18-18-18-18-18-18-|
A-0--0--0--0--0--0--0--0--0--0--0--0--|
E-16-16-16-16-16-16-16-16-16-16-16-16-|

RIFF 2- REPEAT X 3
  Am                          A#M    Gm
E-----------5-----|--------------------|
B-----------5-----|--------------------|
G-5--5-5-5--5---5-|-5--5-5-5--7--7-7-3-|
D-7--7-7-7------7-|-7--7-7-7--8--8-8-5-|
A-7--7-7-7------7-|-7--7-7-7--8--8-8-5-|
E-5--5-5-5------5-|-5--5-5-5--6--6-6-3-|
  v  v ^ v  v   v   v  v ^ v  v  v ^ v
E-----------5-----|--------------------|
B-----------5-----|--------------------|
G-5--5-5-5--5---5-|-5--5-5-5--7--7-7-3-|
D-7--7-7-7------7-|-7--7-7-7--8--8-8-5-|
A-7--7-7-7------7-|-7--7-7-7--8--8-8-5-|
E-5--5-5-5------5-|-5--5-5-5--6--6-6-5-|

 Am                  A#M
E-----------5-------|--------------------
B-----------5-------|--------------------
G-5--5-5-5--5-5-5-5-|-7--7-7-7--7--7-7-7-
D-7--7-7-7----7-7-7-|-8--8-8-8--8--8-8-8-
A-7--7-7-7----7-7-7-|-8--8-8-8--8--8-8-8-
E-5--5-5-5----5-5-5-|-6--6-6-6--6--6-6-6-

  D#m                       D#m/5b
E-------------------------|-------------------------|
B-------------------------|-------------------------|
G-3-3-3-3-3-3-3-3-3-3-3-3-|-2-2-2-2-2-2-2-2-2-2-2-2-|
D-4-4-4-4-4-4-4-4-4-4-4-4-|-4-4-4-4-4-4-4-4-4-4-4-4-|
A-6-6-6-6-6-6-6-6-6-6-6-6-|-6-6-6-6-6-6-6-6-6-6-6-6-|
E-------------------------|-------------------------|
  v ^ v ^ v ^ v ^ v ^ v ^   v etc.
 F#m                         GM
E-----------2-----|--------------------|
B-----------2-----|--------------------|
G-2--2-2-2--2---2-|-2--2-2-2--4--4-4---|
D-4--4-4-4------4-|-4--4-4-4--5--5-5---|
A-4--4-4-4------4-|-4--4-4-4--5--5-5---|
E-2--2-2-2------2-|-2--2-2-2--3--3-3-0-|

E-----------2-----|--------------------|
B-----------2-----|--------------------|
G-2--2-2-2--2---2-|-2--2-2-2--4--4-4---|
D-4--4-4-4------4-|-4--4-4-4--5--5-5---|
A-4--4-4-4------4-|-4--4-4-4--5--5-5---|
E-2--2-2-2------2-|-2--2-2-2--3--3-3-0-|

  F#m                 GM
E-----------2--------|--------------------|
B-----------2--------|--------------------|
G-2--2-2-2--2--2-2-2-|-4--4-4-4--4--4-4-4-|
D-4--4-4-4-----4-4-4-|-5--5-5-5--5--5-5-5-|
A-4--4-4-4-----4-4-4-|-5--5-5-5--5--5-5-5-|
E-2--2-2-2-----2-2-2-|-3--3-3-3--3--3-3-3-|



 D#m                       GM
E-------------------------|-------------------------|
B-------------------------|-3-3-3-3-3-3-3---3---3---|
G-3-3-3-3-3-3-3-3-3-3-3-3-|-4-4-4-4-4-4-4---4---4---| END OF RIFF 2
D-4-4-4-4-4-4-4-4-4-4-4-4-|-5-5-5-5-5-5-5---5---5---|
A-6-6-6-6-6-6-6-6-6-6-6-6-|-5-5-5-5-5-5-5---5---5---|
E-------------------------|-3-3-3-3-3-3-3---3---3---|


GTR 2-LEAD 1 W/DELAY EFFECT (GTR 1 PLAYS RIFF2 )
E-------------------------------------|
B-------------------------------------|
G-15-15-15-15-15-15-15-15-15-15-15-15-|
D-------------------------------------|
A-13-13-13-13-13-13-13-13-13-13-13-13-|
E-------------------------------------|

E-------------------------------------|
B-------------------------------------|
G-14-14-14-14-14-14-14-14-14-14-14-14-|
D-------------------------------------|
A-12-12-12-12-12-12-12-12-12-12-12-12-|
E-------------------------------------|





E--------------------|-------------------|
B--------------------|-------------------|
G-9--9-9-9--9--9-9-9-|-9--9-9-9--9/10\7--|
D--------------------|-------------------|
A-7--7-7-7--7--7-7-7-|-7--7-7-7--7/8-\5--|
E--------------------|-------------------|

E---------------------|-------------------|
B---------------------|-------------------|
G--9--9-9-9--9--9-9-9-|-9--9-9-9--9/10\7--|
D---------------------|-------------------|
A--7--7-7-7--7--7-7-7-|-7--7-7-7--7/8-\5--|
E---------------------|-------------------|

E---------------------|-------------------|
B---------------------|-------------------|
G--9--9-9-9--9--9-9-9-|-9--9-9-9--9-9-9-9-|
D---------------------|-------------------|
A--7--7-7-7--7--7-7-7-|-8--8-8-8--8-8-8-8-|
E---------------------|-------------------|

E-------------------------------------|
B-------------------------------------|
G-15-15-15-15-15-15-15-15-15-15-15-15-|
D-------------------------------------|
A-13-13-13-13-13-13-13-13-13-13-13-13-|
E-------------------------------------|

E-------------------------------------|
B-------------------------------------|
G-14-14-14-14-14-14-14-14-14-14-14-14-|
D-------------------------------------|
A-12-12-12-12-12-12-12-12-12-12-12-12-|
E-------------------------------------|




E--------------------|-------------------|
B--------------------|-------------------|
G-6--6-6-6--6--6-6-6-|-6--6-6-6--6/7-\4--|
D--------------------|-------------------|
A-4--4-4-4--4--4-4-4-|-4--4-4-4--4/5-\2--|
E--------------------|-------------------|

E--------------------|-------------------|
B--------------------|-------------------|
G-6--6-6-6--6--6-6-6-|-6--6-6-6--6/7-\4--|
D--------------------|-------------------|
A-4--4-4-4--4--4-4-4-|-4--4-4-4--4/5-\2--|
E--------------------|-------------------|


E---------------------|-------------------|
B---------------------|-------------------|
G--6--6-6-6--6--6-6-6-|-7--7-7-7--7-7-7-7-|
D---------------------|-------------------|
A--4--4-4-4--4--4-4-4-|-5--5-5-5--5-5-5-5-|
E---------------------|-------------------|

E-------------------------------------|
B-------------------------------------|
G-11-11-11-11-11-11-11-11-11-11-11-11-|
D-------------------------------------|
A-9--9--9--9--9--9--9--9--9--9--9--9--|
E-------------------------------------|

E-------------------------------------|---------------------
B-------------------------------------|---------------------
G-14-14-14-14-14-14-14-14-14-14-14-14-|-9-------------------
D-------------------------------------|---LET NOTES RING OUT
A-12-12-12-12-12-12-12-12-12-12-12-12-|-7-------------------
E-------------------------------------|---------------------

REPEAT RIFF 2 X2

GTR2 LEAD 2 W/DELAY EFFECT(GTR1 PLAYS RIFF 2)

-----------------------------|---------------------------|
-----------------------------|---------------------------|
--17--17-17-17--17--17-17-17-|-17--17-17-17--/17-\16-\12-|
-----------------------------|---------------------------|
--15--15-15-15--15--15-15-15-|-15--15-15-15--/15-\14-\10-|
-----------------------------|---------------------------|
  v   v  ^  v   v   v  ^  v    v   v  ^  v    v
-----------------------------|----------------------------|
-----------------------------|----------------------------|
--14--14-14-14--14--14-14-14-|-14--14-14-14--14--14-14-12-|
-----------------------------|----------------------------|
--12--12-12-12--12--12-12-12-|-12--12-12-12--12--12-12-10-|
-----------------------------|----------------------------|

-----------------------------|----------------------------|
-----------------------------|----------------------------|
--14--14-14-14--14--14-14-14-|/15--15-15-15--15--15-15-15-|
-----------------------------|----------------------------|
--12--12-12-12--12--12-12-12-|/13--13-13-13--13--13-13-13-|
-----------------------------|----------------------------|

-------------------------------------|
-------------------------------------|
--11-11-11-11-11-11-11-11-11-11-11-11|
-------------------------------------|
--9--9--9--9--9--9--9--9--9--9--9--9-|
-------------------------------------|

-------------------------------------|
-------------------------------------|
--11-11-11-11-11-11-11-11-11-11-9----|
-------------------------------------|
--9--9--9--9--9--9--9--9--9--9--7----|
-------------------------------------|



-----------------------------|---------------------------|
-----------------------------|---------------------------|
--11--11-11-11--11--11-11-11-|-11--11-11-11--11/13--9----|
-----------------------------|---------------------------|
--9---9--9--9---9---9--9--9--|-9---9--9--9----9/10--7----|
-----------------------------|---------------------------|

-----------------------------|---------------------------|
-----------------------------|---------------------------|
--11--11-11-11--11--11-11-11-|-11--11-11-11--11--11-11-11|
-----------------------------|---------------------------|
--9---9--9--9---9---9--9--9--|-9---9--9--9---9---9--9--9-|
-----------------------------|---------------------------|


-----------------------------|----------------------------|
-----------------------------|----------------------------|
--11--11-11-11--11--11-11-11-|/12--12-12-12--12--12-12-12-|
-----------------------------|----------------------------|
--9---9--9--9---9---9--9--9--|/10--10-10-10--10--10-10-10-|
-----------------------------|----------------------------|

-------------------------|-------------------------|-----------------
-------------------------|-------------------------|-----------------
-------------------------|-------------------------|-----------------
-8-8-8-8-8-8-8-8-8-8-7/8-|-7-7-7-7-7-7-7-7-7-7-7-7-|-7---------------
-------------------------|-------------------------|--NOTES RING OUT-
-6-6-6-6-6-6-6-6-6-6-5/6-|-5-5-5-5-5-5-5-5-5-5-5-5-|-5---------------


RIFF 3(A)GTR 1- REPEAT X 2
 Am
E-0--0-0-0--0--0-0-0-|-0--0-0-0--0--0-0-0-|
B-1--1-1-1--1--1-1-1-|-1--1-1-1--1--1-1-1-|
G-2--2-2-2--2--2-2-2-|-2--2-2-2--2--2-2-2-|
D-2--2-2-2--2--2-2-2-|-2--2-2-2--2--2-2-2-|
A-0--0-0-0--0--0-0-0-|-0--0-0-0--0--0-0-0-|
E--------------------|--------------------|
  v  v ^ v  v  v ^ v etc

A7
E-0--0-0-0--0--0-0-0-|-0--0-0-0--0--0-0-0-|
B-5--5-5-5--5--5-5-5-|-5--5-5-5--5--5-5-5-|
G-0--0-0-0--0--0-0-0-|-0--0-0-0--0--0-0-0-|
D-5--5-5-5--5--5-5-5-|-5--5-5-5--5--5-5-5-|
A-0--0-0-0--0--0-0-0-|-0--0-0-0--0--0-0-0-|
E--------------------|--------------------|

Dm
E-5--5-5-5--5--5-5-5-|-5--5-5-5--5--5-5-5-|
B-6--6-6-6--6--6-6-6-|-6--6-6-6--6--6-6-6-|
G-7--7-7-7--7--7-7-7-|-7--7-7-7--7--7-7-7-|
D-7--7-7-7--7--7-7-7-|-7--7-7-7--7--7-7-7-|
A-5--5-5-5--5--5-5-5-|-5--5-5-5--5--5-5-5-|
E--------------------|--------------------|



E--------------------|--------------------|
B-3--3-3-3--3--3-3-3-|-3--3-3-3--3--3-3-3-|
G-2--2-2-2--2--2-2-2-|-2--2-2-2--2--2-2-2-|
D-3--3-3-3--3--3-3-3-|-3--3-3-3--3--3-3-3-|  END OF RIFF 3(A)
A-0--0-0-0--0--0-0-0-|-0--0-0-0--0--0-0-0-|
E--------------------|--------------------|




RIFF 3(B) REPEAT X 2

Am
E-0--0-0-0--0--0-0-0-|-0--0-0-0--0--0-0-0-|
B-1--1-1-1--1--1-1-1-|-1--1-1-1--1--1-1-1-|
G-2--2-2-2--2--2-2-2-|-2--2-2-2--2--2-2-2-|
D-2--2-2-2--2--2-2-2-|-2--2-2-2--2--2-2-2-|
A-0--0-0-0--0--0-0-0-|-0--0-0-0--0--0-0-0-|
E--------------------|--------------------|
  v  v ^ v  v  v ^ v etc..

A7
E-0--0-0-0--0--0-0-0-|-0--0-0-0--0--0-0-0-|
B-5--5-5-5--5--5-5-5-|-5--5-5-5--5--5-5-5-|
G-0--0-0-0--0--0-0-0-|-0--0-0-0--0--0-0-0-|
D-5--5-5-5--5--5-5-5-|-5--5-5-5--5--5-5-5-|
A-0--0-0-0--0--0-0-0-|-0--0-0-0--0--0-0-0-|
E--------------------|--------------------|

Dm
E-6--6-6-6--6--6-6-6-|-5--5-5-5--5--5-5---|
B-6--6-6-6--6--6-6-6-|-6--6-6-6--6--6-6---|
G-7--7-7-7--7--7-7-7-|-7--7-7-7--7--7-7---|
D-7--7-7-7--7--7-7-7-|-7--7-7-7--7--7-7---|
A-5--5-5-5--5--5-5-5-|-5--5-5-5--5--5-5---|
E--------------------|------------------0-|


FM
E-1--1-1-1--1--1-1-1-|-1--1-1-1--1--1-1---|
B-1--1-1-1--1--1-1-1-|-1--1-1-1--1--1-1---|
G-2--2-2-2--2--2-2-2-|-2--2-2-2--2--2-2---| END OF RIFF 3(B)
D-3--3-3-3--3--3-3-3-|-3--3-3-3--3--3-3---|
A-3--3-3-3--3--3-3-3-|-3--3-3-3--3--3-3---|
E-1--1-1-1--1--1-1-1-|-1--1-1-1--1--1-1-0-|


RIFF 3(C)GTR 2 REPEAT X 4. (GTR 1 PLAYS RIFF 3(B) X 4)

E--------------------|---------------------|
B--------------------|---------------------|
G--------------------|---------------------|
D--------------------|-----------3-0-0-0---|
A-0--0-0-0--0--0-0-0-|-0--0-0-0------------|
E--------------------|---------------------|
  v  v ^ v  v  v ^ v etc..
E--------------------|---------------------|
B--------------------|---------------------|
G--------------------|---------------------|
D-5--5-5-5--5--5-5-5-|-5--5-5-5--5-5-5-5---|
A--------------------|---------------------|
E--------------------|---------------------|

E--------------------|---------------------|
B--------------------|---------------------|
G--------------------|---------------------|
D-8--8-8-8--8--8-8-8-|-7--7-7-7--7--7-7-7--|
A--------------------|---------------------|
E--------------------|---------------------|

E--------------------|---------------------|
B--------------------|---------------------|
G--------------------|---------------------|
D--------------------|---------------------| END OF RIFF 3(C)
A--------------------|---------------------|
E-1--1-1-1--1--1-1-1-|-1--1-1-1--1--1-1-0--|

RIFF 4 (GTR 1)REPEAT X 4.
GTR 2 PLAYS SOMETHING SIMILAR BUT ONLY FIRST NOTE OF EACH CHORD
 FOR THIS RIFF)
                   Am
E----------------|----------------|-------------------------|
B-3-----3--3-3-3-|-1-----1--1-1-1-|-------------------------|
G-2-----2--2-2-2-|-2-----2--2-2-2-|-------------------------|
D-3-----3--3-3-3-|-2-----2--2-2-2-|-2-2-2-2-2-2-0-0-0-0-0-0-|
A-0-----0--0-0-0-|-0-----0--0-0-0-|-3-3-3-3-3-3-2-2-2-2-2-2-|
E----------------|----------------|-------------------------|
  v     v  v ^ v   v    v   v ^ v   v ^ v ^ v ^ v ^ v ^ v ^
  F#m
E-2--2-2-2--2--2-2-2-|
B-2--2-2-2--2--2-2-2-|
G-2--2-2-2--2--2-2-2-| END OF RIFF 4
D-4--4-4-4--4--4-4-4-|
A-4--4-4-4--4--4-4-4-|
E-2--2-2-2--2--2-2-2-|

GTR1 REPEAT RIFF 3(B) X 4. GTR 2 PLAYS RIFF 3(C) X 4

REPEAT RIFF 4 X 4

RIFF 5
F#M                           A#M
E-2--2-2-2--2--2-2-2-|      E-6--6-6-6--6--6-6-6--
B-2--2-2-2--2--2-2-2-|      B-6--6-6-6--6--6-6-6--
G-3--3-3-3--3--3-3-3-| X 2  G-7--7-7-7--7--7-7-7--  X 2
D-4--4-4-4--4--4-4-4-|      D-8--8-8-8--8--8-8-8--
A-4--4-4-4--4--4-4-4-|      A-8--8-8-8--8--8-8-8--
E-2--2-2-2--2--2-2-2-|      E-6--6-6-6--6--6-6-6--
  v  v ^ v  v  v ^ v etc..
  Am
E-5--5-5-5--5--5-5-5-|
B-5--5-5-5--5--5-5-5-|
G-5--5-5-5--5--5-5-5-| X 4
D-7--7-7-7--7--7-7-7-|
A-7--7-7-7--7--7-7-7-|
E-5--5-5-5--5--5-5-5-|

F#M                           A#m
E-2--2-2-2--2--2-2-2-|      E-6--6-6-6--6--6-6-6--
B-2--2-2-2--2--2-2-2-|      B-6--6-6-6--6--6-6-6--
G-3--3-3-3--3--3-3-3-| X 2  G-6--6-6-6--6--6-6-6--  X 2
D-4--4-4-4--4--4-4-4-|      D-8--8-8-8--8--8-8-8--
A-4--4-4-4--4--4-4-4-|      A-8--8-8-8--8--8-8-8--
E-2--2-2-2--2--2-2-2-|      E-6--6-6-6--6--6-6-6--

  AM
E-5--5-5-5--5--5-5-5-|
B-5--5-5-5--5--5-5-5-|
G-6--6-6-6--6--6-6-6-| X 4
D-7--7-7-7--7--7-7-7-|
A-7--7-7-7--7--7-7-7-|
E-5--5-5-5--5--5-5-5-|


F#m
E-2--2-2-2--2--2-2-2-|      E----------------------------|
B-2--2-2-2--2--2-2-2-|      B----------------------------|
G-2--2-2-2--2--2-2-2-| X 2  G----------------------------| X 2
D-4--4-4-4--4--4-4-4-|      D-10--10-10-10--10--10-10-10-|
A-4--4-4-4--4--4-4-4-|      A-8---8--8--8---8---8--8--8--|
E-2--2-2-2--2--2-2-2-|      E-6---6--6--6---6---6--6--6--|

  AM
E--------------------|
B--------------------|
G--------------------| X 4
D-9--9-9-9--9--9-9-9-|
A-7--7-7-7--7--7-7-7-|
E-5--5-5-5--5--5-5-5-|


F#M                           Gm
E-2--2-2-2--2--2-2-2-|      E-3--3-3-3--3--3-3-3--
B-2--2-2-2--2--2-2-2-|      B-3--3-3-3--3--3-3-3--
G-3--3-3-3--3--3-3-3-| X 2  G-3--3-3-3--3--3-3-3--  X 2
D-4--4-4-4--4--4-4-4-|      D-5--5-5-5--5--5-5-5--
A-4--4-4-4--4--4-4-4-|      A-5--5-5-5--5--5-5-5--
E-2--2-2-2--2--2-2-2-|      E-3--3-3-3--3--3-3-3--

  AM
E-5--5-5-5--5--5-5-5-|
B-5--5-5-5--5--5-5-5-|
G-6--6-6-6--6--6-6-6-| X 2
D-7--7-7-7--7--7-7-7-|
A-7--7-7-7--7--7-7-7-|
E-5--5-5-5--5--5-5-5-|

AM
E-5-5-5-5-5-5-5-5-5-5-5-5-|
B-5-5-5-5-5-5-5-5-5-5-5-5-|
G-6-6-6-6-6-6-6-6-6-6-6-6-| X 2 END OF RIFF 5
D-7-7-7-7-7-7-7-7-7-7-7-7-|
A-7-7-7-7-7-7-7-7-7-7-7-7-|
E-5-5-5-5-5-5-5-5-5-5-5-5-|
1 & 2 & 3 & 4 & 5 & 6 &

REPEAT RIFF 2 X 2

RIFF 6 REPEAT X 2

E--------------------|      E--------------------|
B-7--7-7-7--7--7-7-7-|      B-2--2-2-2--2--2-2-2-|
G-5--5-5-5--5--5-5-5-| X 2  G-3--3-3-3--3--3-3-3-|  X 2
D-7--7-7-7--7--7-7-7-|      D-3--3-3-3--3--3-3-3-|
A-0--0-0-0--0--0-0-0-|      A-0--0-0-0--0--0-0-0-|
E--------------------|      E--------------------|
  V  v ^ v  v  v ^ v etc
E--------------------|      E--------------------|
B-7--7-7-7--7--7-7-7-|      B-2--2-2-2--2--2-2-2-|
G-5--5-5-5--5--5-5-5-| X 2  G-3--3-3-3--3--3-3-3-|  X 2
D-7--7-7-7--7--7-7-7-|      D-3--3-3-3--3--3-3-3-|
A-0--0-0-0--0--0-0-0-|      A-0--0-0-0--0--0-0-0-|
E--------------------|      E--------------------|

E--------------------|----------------------------|
B-7--7-7-7--7--7-7-7-|-10--10-10-10--10--10-10-10-|
G-5--5-5-5--5--5-5-5-|-9---9--9--9---9---9--9--9--|
D-7--7-7-7--7--7-7-7-|-10--10-10-10--10--10-10-10-|
A-0--0-0-0--0--0-0-0-|-0---0--0--0---0---0--0--0--|
E--------------------|----------------------------|

E--------------------|
B-2--2-2-2--2--2-2-2-|
G-3--3-3-3--3--3-3-3-|
D-3--3-3-3--3--3-3-3-| X 2
A-0--0-0-0--0--0-0-0-|
E--------------------|

E----------------------------|----------------------------|
B-10--10-10-10--10--10-10-10-|-11--11-11-11--11--11-11-11-|
G-9---9--9--9---9---9--9--9--|-12--12-12-12--12--12-12-12-|
D-10--10-10-10--10--10-10-10-|-12--12-12-12--12--12-12-12-|
A-0---0--0--0---0---0--0--0--|-0---0--0--0---0---0--0--0--|
E----------------------------|----------------------------|

E--------------------|
B-2--2-2-2--2--2-2-2-|
G-3--3-3-3--3--3-3-3-|     END OF RIFF 6
D-3--3-3-3--3--3-3-3-| X 2
A-0--0-0-0--0--0-0-0-|
E--------------------|

REPEAT RIFF 4 X 1

                  Am                                    Am
E----------------|----------------|--------------------|-0-----
B-3-----3--3-3-3-|-1-----1--1-1-1-|-3--3-3-3--3--3-3-3-|-1-----
G-2-----2--2-2-2-|-2-----2--2-2-2-|-2--2-2-2--2--2-2-2-|-2-----CHORD
D-3-----3--3-3-3-|-2-----2--2-2-2-|-3--3-3-3--3--3-3-3-|-2-----FADES
A-0-----0--0-0-0-|-0-----0--0-0-0-|-0--0-0-0--0--0-0-0-|-0----- OUT
E----------------|----------------|--------------------|-------
  v     v  v ^ v   v     v  v ^ v   v  v ^ v  v  v ^ v   v

  Visit MetalTabs.com for more metal tablature

bottom separator

Contact Us | Privacy Policy | Disclaimer | Legal Notice
Copyright © 2001-2014 MetalTabs.com. All Rights Reserved.