top separator

Home

Forum

What's New

Submit a Tab

FAQ

Links

Contact Us

Link to Us

MetalTabs.com logo

Bands

0-9

A

B

C

D

E

F

G

H

I

J

K

L

M

N

O

P

Q

R

S

T

U

V

W

X

Y

Z

Search

What

Where
 

As I Lay Dying - "Reflection" Guitar Tab

Plain Text Version
More As I Lay Dying Tabs

Hits: 2386
Rated: 2.50 out of 5 (2 votes)
Updated: 2006-06-21 10:17:15

 

By:

sendpm.gif

email.gif

Important note
This tab is available online because we obtained explicit permission from As I Lay Dying or their label.


#----------------------------------PLEASE NOTE---------------------------------#
#This file is the author's own work and represents their interpretation of the #
#song. You may only use this file for private study, scholarship, or research. #
#Unless specified otherwise, this is NOT an official tab from the band members.#
#------------------------------------------------------------------------------#

  Visit MetalTabs.com for more metal tablature
  
REFLECTION
                          As recorded by As I Lay Dying
                   (From the 2005 Album SHADOWS ARE SECURITY)
                        Copyright (c) Metal Blade Records

Transcribed by Daniel de la Rosa (MeloDeath) - the_jesters_dance@yahoo.com

Gtr I (C G C F A D)
Gtr II (C G C F A D)
   Gtrs I, II
   Tremolo Picking:
||-------------|-----------|-----------|-----------|
||o------------|-----------|-----------|-----------|
||-------------|-----------|-----------|-----------|
||-------------|-----------|-5---------|-----------|
||o-8------10--|-7----5----|--------8--|-7----5----|
||-------------|-----------|-----------|-----------|

                                                  2x
|------------|-----------|-----------|------------||
|------------|-----------|-----------|-----------o||
|------------|-----------|-----------|------------||
|------------|-----------|-7------5--|------------||
|-8------10--|-7----5----|-----------|-8----7----o||
|------------|-----------|-----------|------------||

   Gtr I
|-----------------|------------------|-----------------|-----------------|
|-----------------|------------------|-----------------|-----------------|
|-----------------|------------------|-----------------|-----------------|
|-----------------|-7p3-0----------- |-8p5-0-----------|-----------------|
|-8p5---------8p5-|--------------8p5-|-------------8p5-|---5-----5-----5-|
|-----000-000-----|-------0-000------|-------0-000-----|-5---5-3---3-2---|
|     ... ...             . ...              . ...       .   . .   . .
|  Gtr II
|-----------------|------------------|-----------------|-----------------|
|-----------------|------------------|-----------------|-----------------|
|-----------------|------------------|-----------------|-----------------|
|-0---------------|-(0)--------------|-(0)-------------|-----------------|
|-0---------------|-(0)--------------|-(0)-------------|---5-----5-----5-|
|-0---------------|-(0)--------------|-(0)-------------|-5---5-3---3-2---|
                                                         .   . .   . .

   Gtr I
|-------------------|-------------------|--------------------|-----------------|
|-------------------|-------------------|--------------------|-----------------|
|-------------------|-------------------|--------------------|-----------------|
|-------------------|--7p3-0----------- |--8p5--0------------|-----------------|
|-8p5-----------8p5-|---------------8p5-|----------------8p5-|---8-----8---7h8-|
|------000-000------|--------0-000------|---------0-000------|-8---5-5---8-----|
|      ... ...               . ...                . ...        .   . .   .
|  Gtr II
|-------------------|-------------------|--------------------|-----------------|
|-------------------|-------------------|--------------------|-----------------|
|-------------------|-------------------|--------------------|-----------------|
|-0-----------------|-(0)---------------|-(0)----------------|-----------------|
|-0-----------------|-(0)---------------|-(0)----------------|---8-----8---7h8-|
|-0-----------------|-(0)---------------|-(0)----------------|-8---5-5---8-----|
                                                                .   . .   .

   Gtrs I, II
||-------------------|------------------|--------------------|-----------------|
||o------------------|------------------|--------------------|-----------------|
||-------------------|------------------|--------------------|-----------------|
||-------------------|-7p3-0----------- |--8p5--0------------|-----------------|
||o-8p5----------8p5-|--------------8p5-|----------------8p5-|---5-----5-----5-|
||------000-000------|-------0-000------|---------0-000------|-5---5-3---3-2---|
        ... ...              . ...                . ...        .   . .   . .
                                                                             2x
|-----------------|------------------|--------------------|-------------------||
|-----------------|------------------|--------------------|------------------o||
|-----------------|------------------|--------------------|-------------------||
|-----------------|-7p3-0----------- |--8p5--0------------|-------------------||
|-8p5---------8p5-|--------------8p5-|----------------8p5-|---8-----8---7h8--o||
|-----000-000-----|-------0-000------|---------0-000------|-8---5-5---8-------||
      ... ...             . ...                . ...        .   . .   .

   Gtrs I, II
||----------------|-----------------|---------------|------------------|
||o---------------|-----------------|---------------|------------------|
||----------------|-----------------|---------------|------------------|
||------------5---|-----------------|-5----5--------|------------------|
||o-8----8--------|-7---7---5---5---|-----------8---|-7---7---5---5----|
||----00---00---0-|---0---0---0---0-|---88---88---8-|---8---8---8---8--|
      ..   ..   .     .   .   .   .     ..   ..   .     .   .   .   .
                                                                       2x
|----------------|-----------------|---------------|-------------------||
|----------------|-----------------|---------------|------------------o||
|----------------|-----------------|---------------|-------------------||
|------------5---|-----------------|-7----7--------|-------------------||
|--8----8--------|-7---7---5---5---|-----------5---|-8---8---7---7----o||
|----00---00---0-|---0---0---0---0-|---55---55---5-|---8---8---8---8---||
     ..   ..   .     .   .   .   .     ..   ..   .     .   .   .   .

   Gtr I
||-----------------|-----------------|---------------|------------------|
||o----------------|-----------------|---------------|------------------|
||-----------------|-----------------|---------------|------------------|
||-------------5---|-----------------|-5----5--------|------------------|
||o--8----8--------|-7---7---5---5---|-----------8---|-7---7---5---5----|
||-----00---00---0-|---0---0---0---0-|---88---88---8-|---8---8---8---8--|
||     ..   ..   .     .   .   .   .     ..   ..   .     .   .   .   .
|| Gtr II
||-----------------|-----------------|---------------|------------------|
||o----------------|-----------------|---------------|------------------|
||-----------------|-----------------|---------------|------------------|
||---7----7----8---|-5---5-----------|-8----8----7---|-5---5------------|
||o----------------|---------8---8---|---------------|---------8---8----|
||-----00---00---0-|---0---0---0---0-|---88---88---8-|---8---8---8---8--|
       ..   ..   .     .   .   .   .     ..   ..   .     .   .   .   .

   Gtr I                                                                2x
|-----------------|-----------------|---------------|-------------------||
|-----------------|-----------------|---------------|------------------o||
|-----------------|-----------------|---------------|-------------------||
|-------------5---|-----------------|-7----7----5---|-------------------||
|---8----8--------|-7---7---5---5---|---------------|-8---8---7---7----o||
|-----00---00---0-|---0---0---0---0-|---55---55---5-|---8---8---8---8---||
|     ..   ..   .     .   .   .   .     ..   ..   .     .   .   .   .
|  Gtr II
|-----------------|-----------------|---------------|-------------------||
|-----------------|-----------------|---------------|------------------o||
|-----------------|-----------------|---------------|-------------------||
|---7----7----8---|-5---5-----------|---------------|-7---7---5---5-----||
|-----------------|---------8---8---|-8----8----7---|------------------o||
|-----00---00---0-|---0---0---0---0-|---55---55---5-|---8---8---8---8---||
      ..   ..   .     .   .   .   .     ..   ..   .     .   .   .   .

   Gtrs I, II
||------------------|------------------|--------------------|-----------------|
||o-----------------|------------------|--------------------|-----------------|
||------------------|------------------|--------------------|-----------------|
||------------------|-7p3-0----------- |--8p5--0------------|-----------------|
||o-8p5---------8p5-|--------------8p5-|----------------8p5-|---5-----5-----5-|
||------000-000-----|-------0-000------|---------0-000------|-5---5-3---3-2---|
        ... ...             . ...                . ...        .   . .   . .
                                                                             2x
|------------------|-----------------|--------------------|-------------------||
|------------------|-----------------|--------------------|------------------o||
|------------------|-----------------|--------------------|-------------------||
|------------------|-7p3-0---------- |--8p5--0------------|-------------------||
|-8p5----------8p5-|-------------8p5-|----------------8p5-|---8-----8---7h8--o||
|-----000-000------|-------0-000-----|---------0-000------|-8---5-5---8-------||
      ... ...              . ...               . ...        .   . .   .

   Gtr I
|-----------------|-----------------|
|-----------------|-----------------|
|-----------------|-----------------|
|-----------------|-----------------|
|-000-000-000-000-|-----------------|
|-000-000-000-000-|-----------------|
| ... ... ... ...
|  Gtr II
|-----------------|-----------------|
|-----------------|-----------------|
|-----------------|-----------------|
|-----------------|-----------------|
|-000-------------|-000-000-000-000-|
|-000-------------|-000-000-000-000-|
  ...               ... ... ... ...

   Gtr I
||------------------|-----------------|-----------------|-----------------|
||o-----------------|-----------------|-----------------|-----------------|
||------------------|-----------------|-----------------|-----------------|
||------------------|-----------------|-----------------|-----------------|
||o-000-000-000-0-0-|-000-000-000-0-0-|-000-000-000-0-0-|---5-----5-----5-|
||--000-000-000-0-0-|-000-000-000-0-0-|-000-000-000-0-0-|-5---5-3---3-2---|
||  ... ... ... . .   ... ... ... . .   ... ... ... . .   .   . .   . .
||  Gtr II
||------------------|-----------------|-----------------|-----------------|
||o-----------------|-----------------|-----------------|-----------------|
||------------------|-----------------|-----------------|-----------------|
||------------------|-----------------|-----------------|-----------------|
||o-000-000-000-0-0-|-000-000-000-0-0-|-000-000-000-0-0-|-000-000-000-0-0-|
||--000-000-000-0-0-|-000-000-000-0-0-|-000-000-000-0-0-|-000-000-000-0-0-|
||  ... ... ... . .   ... ... ... . .   ... ... ... . .   ... ... ... . .

   Gtr I                                                                  2x
|-----------------|-----------------|-----------------|-------------------||
|-----------------|-----------------|-----------------|------------------o||
|-----------------|-----------------|-----------------|-------------------||
|-----------------|-----------------|-----------------|-------------------||
|-000-000-000-0-0-|-000-000-000-0-0-|-000-000-000-0-0-|-000-000-000-0-0--o||
|-000-000-000-0-0-|-000-000-000-0-0-|-000-000-000-0-0-|-000-000-000-0-0---||
| ... ... ... . .   ... ... ... . .   ... ... ... . .   ... ... ... . .
|  Gtr II
|-----------------|-----------------|-----------------|-------------------||
|-----------------|-----------------|-----------------|------------------o||
|-----------------|-----------------|-----------------|-------------------||
|-----------------|-----------------|-----------------|-------------------||
|-000-000-000-0-0-|-000-000-000-0-0-|-000-000-000-0-0-|---8-----8---7h8--o||
|-000-000-000-0-0-|-000-000-000-0-0-|-000-000-000-0-0-|-8---5-5---8-------||
| ... ... ... . .   ... ... ... . .   ... ... ... . .   ... ... ... . .

   Gtr I
||--------------------|------------------|-------------------|-----------------|
||o-------------------|------------------|-------------------|-----------------|
||--------------------|------------------|-------------------|-----------------|
||--------------------|-7p3-0----------- |-8p5--0------------|-----------------|
||o-8p5-----------8p5-|--------------8p5-|---------------8p5-|---5-----5-----5-|
||-------000-000------|-------0-000------|--------0-000------|-5---5-3---3-2---|
||       ... ...              . ...               . ...        .   . .   . .
|| Gtr II
||--------------------|------------------|-------------------|-----------------|
||o-------------------|------------------|-------------------|-----------------|
||--------------------|------------------|-------------------|-----------------|
||--------------------|----------------- |-------------------|-----------------|
||o-------------------|------------------|-------------------|---5-----5-----5-|
||-------000-000------|-------0-000------|--------0-000------|-5---5-3---3-2---|
||       ... ...              . ...               . ...        .   . .   . .

   Gtr I                                                                      2x
|-----------------|-------------------|-------------------|-------------------||
|-----------------|-------------------|-------------------|------------------o||
|-----------------|-------------------|-------------------|-------------------||
|-----------------|-7p3-0------------ |-8p5--0------------|-------------------||
|8p5----------8p5-|---------------8p5-|---------------8p5-|---8-----8---7h8--o||
|----000-000------|--------0-000------|--------0-000------|-8---5-5---8-------||
|    ... ...               . ...               . ...        .   . .   .
|  Gtr II
|-----------------|-------------------|-------------------|-------------------||
|-----------------|-------------------|-------------------|------------------o||
|-----------------|-------------------|-------------------|-------------------||
|-----------------|------------------ |-------------------|-------------------||
|-----------------|-------------------|-------------------|---8-----8---7h8--o||
|----000-000------|--------0-000------|--------0-000------|-8---5-5---8-------||
     ... ...               . ...               . ...        .   . .   .


   Gtrs I, II
|---------------|-----------------|---------------|------------------|
|---------------|-----------------|---------------|------------------|
|---------------|-----------------|---------------|------------------|
|-----------5---|-----------------|-5----5--------|------------------|
|-8----8--------|-7---7---5---5---|-----------8---|-7---7---5---5----|
|---00---00---0-|---0---0---0---0-|---88---88---8-|---8---8---8---8--|
      ..   ..   .     .   .   .   .     ..   ..   .     .   .   .   .

|----------------|-----------------|---------------|------------------|
|----------------|-----------------|---------------|------------------|
|----------------|-----------------|---------------|------------------|
|------------5---|-----------------|-7----7--------|------------------|
|--8----8--------|-7---7---5---5---|-----------5---|-8---8---7---7----|
|----00---00---0-|---0---0---0---0-|---55---55---5-|---8---8---8---8--|
     ..   ..   .     .   .   .   .     ..   ..   .     .   .   .   .

   Gtr I
||-----------------|-----------------|---------------|------------------|
||o----------------|-----------------|---------------|------------------|
||-----------------|-----------------|---------------|------------------|
||-------------5---|-----------------|-5----5--------|------------------|
||o--8----8--------|-7---7---5---5---|-----------8---|-7---7---5---5----|
||-----00---00---0-|---0---0---0---0-|---88---88---8-|---8---8---8---8--|
||     ..   ..   .     .   .   .   .     ..   ..   .     .   .   .   .
|| Gtr II
||-----------------|-----------------|---------------|------------------|
||o----------------|-----------------|---------------|------------------|
||-----------------|-----------------|---------------|------------------|
||---7----7----8---|-5---5-----------|-8----8----7---|-5---5------------|
||o----------------|---------8---8---|---------------|---------8---8----|
||-----00---00---0-|---0---0---0---0-|---88---88---8-|---8---8---8---8--|
       ..   ..   .     .   .   .   .     ..   ..   .     .   .   .   .

   Gtr I                                                                2x
|-----------------|-----------------|---------------|-------------------||
|-----------------|-----------------|---------------|------------------o||
|-----------------|-----------------|---------------|-------------------||
|-------------5---|-----------------|-7----7----5---|-------------------||
|---8----8--------|-7---7---5---5---|---------------|-8---8---7---7----o||
|-----00---00---0-|---0---0---0---0-|---55---55---5-|---8---8---8---8---||
|     ..   ..   .     .   .   .   .     ..   ..   .     .   .   .   .
|  Gtr II
|-----------------|-----------------|---------------|-------------------||
|-----------------|-----------------|---------------|------------------o||
|-----------------|-----------------|---------------|-------------------||
|---7----7----8---|-5---5-----------|---------------|-7---7---5---5-----||
|-----------------|---------8---8---|-8----8----7---|------------------o||
|-----00---00---0-|---0---0---0---0-|---55---55---5-|---8---8---8---8---||
      ..   ..   .     .   .   .   .     ..   ..   .     .   .   .   .


  Gtrs I, II
|-----------|------------|
|-----------|------------|
|-10--------|-(10)-------|
|--x--------|--(x)-------|
|--8--------|--(8)-------|
|--0--------|--(0)-------|

  Visit MetalTabs.com for more metal tablature

bottom separator

Contact Us | Privacy Policy | Disclaimer | Legal Notice
Copyright © 2001-2014 MetalTabs.com. All Rights Reserved.