top separator

Home

Forum

What's New

Submit a Tab

FAQ

Links

Contact Us

Link to Us

MuSpy.com

MetalTabs.com logo

Bands

0-9

A

B

C

D

E

F

G

H

I

J

K

L

M

N

O

P

Q

R

S

T

U

V

W

X

Y

Z

Search

What

Where
 

As I Lay Dying - "Through Struggle" Guitar Tab

Plain Text Version
More As I Lay Dying Tabs

Hits: 8107
Rated: 4.20 out of 5 (5 votes)
Updated: 2006-06-21 10:17:05

 

By:

sendpm.gif

email.gif

Important note
This tab is available online because we obtained explicit permission from As I Lay Dying or their label.


#----------------------------------PLEASE NOTE---------------------------------#
#This file is the author's own work and represents their interpretation of the #
#song. You may only use this file for private study, scholarship, or research. #
#Unless specified otherwise, this is NOT an official tab from the band members.#
#------------------------------------------------------------------------------#

  Visit MetalTabs.com for more metal tablature
  
THROUGH STRUGGLE
                          As recorded by As I Lay Dying
                   (From the 2005 Album SHADOWS ARE SECURITY)
                        Copyright (c) Metal Blade Records

Transcribed by Daniel de la Rosa (MeloDeath) - the_jesters_dance@yahoo.com

Gtr I (C G C F A D)
Gtr II (C G C F A D)


  Gtrs I, II
|----------|------------|------------|------------|
|----------|------------|------------|------------|
|----------|------------|------------|------------|
|-0--------|-(0)--------|-(0)--------|-(0)--------|
|-0--------|-(0)--------|-(0)--------|-(0)--------|
|-0--------|-(0)--------|-(0)--------|-(0)--------|


|----------|------------|------------|------------|
|----------|------------|------------|------------|
|----------|------------|------------|------------|
|-0--------|-(0)--------|-(0)--------|-x\\--------|
|-0--------|-(0)--------|-(0)--------|-x\\--------|
|-0--------|-(0)--------|-(0)--------| x\\--------|


   Gtr I
||-----------------|--------------------------|
||o----------------|--------------------------|
||-----------------|--------------------------|
||-----------------|--------------------------|
||o-----8-------7--|------7h8h10------10p8p7--|
||--000-----000----|-000---------000----------|
||  ...     ...      ...         ...
|| Gtr II
||-----------------|--------------------------|
||o----------------|--------------------------|
||-----------------|--------------------------|
||-----------------|--------------------------|
||o----------------|--------------------------|
||--0000----0000---|-0000--------0000---------|
    ....    ....     ....        ....

   Gtr I                                     2x
|----------------|---------------------------||
|----------------|--------------------------o||
|----------------|---------------------------||
|----------------|---------------------------||
|-----8-------7--|------5h7h8------8p7p5----o||
|-888-----888----|-555---------777-----------||
| ...     ...      ...         ...
|  Gtr II
|----------------|---------------------------||
|----------------|--------------------------o||
|----------------|---------------------------||
|----------------|---------------------------||
|----8-------8---|----5-----------7---------o||
|-8888----8888---|-5555--------7777----------||
| ...     ...      ...         ...


   Gtr I
|----------------|--------------------------|
|----------------|--------------------------|
|----------------|--------------------------|
|----------------|--------------------------|
|-----8-------7--|------7h8h10------10p8p7--|
|-000-----000----|-000---------000----------|
| ...     ...      ...         ...
| Gtr II
|----------------|--------------------------|
|----------------|--------------------------|
|----------------|--------------------------|
|-----7-------5--|------5h7h8-------8p7p5---|
|----------------|--------------------------|
|-000-----000----|-000---------000----------|
  ...     ....     ...         ...

   Gtr I
|----------------|--------------------------|
|----------------|--------------------------|
|----------------|--------------------------|
|----------------|--------------------------|
|-----8-------7--|------5h7h8------8p7p5----|
|-888-----888----|-555---------777----------|
| ...     ...      ...         ...
|  Gtr II
|----------------|--------------------------|
|----------------|--------------------------|
|----------------|--------------------------|
|-----7-------5--|------3h5h7------7p5p3----|
|----------------|--------------------------|
|-888-----888----|-555---------777----------|
| ...     ...      ...         ...

   Gtr I
|----------------|--------------------------|
|----------------|--------------------------|
|----------------|--------------------------|
|----------------|--------------------------|
|-----8-------7--|------7h8h10------10p8p7--|
|-000-----000----|-000---------000----------|
| ...     ...      ...         ...
| Gtr II
|----------------|--------------------------|
|----------------|--------------------------|
|----------------|--------------------------|
|-----7-------5--|------5h7h8-------8p7p5---|
|----------------|--------------------------|
|-000-----000----|-000---------000----------|
  ...     ....     ...         ...

   Gtr I
|-------------------|-----------|
|-------------------|-----------|
|-------------------|-----------|
|-------------------|-----------|
|-8888--8-7-5-------|-5555------|
|-8888--------8-\---|-5555------|
| ....                ....
|  Gtr II
|-------------------|-----------|
|-------------------|-----------|
|-------------------|-----------|
|-------7-5---------|-----------|
|-8888------8-5-\---|-5555------|
|-8888--------------|-5555------|
  ....                ....

   Gtr I
|----------|------------|----------|------------|
|----------|------------|----------|------------|
|----------|------------|----------|------------|
|-0--------|-(0)--------|-0--------|-(0)--------|
|-0--------|-(0)--------|-0--------|-(0)--------|
|-0--------|-(0)--------|-0--------|-(0)--------|
|
|  Gtr II
|----------|------------|----------|------------|
|----------|------------|----------|------------|
|----------|------------|----------|------------|
|-0--------|-(0)--------|-0--------|-(0)--------|
|-0--------|-(0)--------|-0--------|-(0)--------|
|-0--------|-(0)--------|-0--------|-(0)--------|

   Gtr I
|-------------------|--------------|----------|-------------|
|-------------------|--------------|----------|-------------|
|-------------------|--------------|----------|-------------|
|--0----------------|--(0)---------|-8--------|-5----x\\----|
|--0----------------|--(0)---------|-8--------|-5----x\\----|
|--0----------------|--(0)---------|-8--------|-5----x\\----|
|  Gtr II
|-------------------|--------------|----------|-------------|
|-<5>---(<5>)b7-----|-(<5>)--------|----------|-------------|
|-------------------|--------------|----------|-------------|
|-------------------|--------------|-8--------|-5----x\\----|
|-------------------|--------------|-8--------|-5----x\\----|
|-------------------|--------------|-8--------|-5----x\\----|


   Gtrs I, II
|----------------|-----------------|------------------|------------------|
|----------------|-----------------|------------------|------------------|
|----------------|-----------------|------------------|------------------|
|----------------|---5-------------|------------------|------------------|
|------5---8---5-|-------8---7h8p7-|------8---12---10p|=8-----7---8------|
|-0--0---0---0---|-0---0---0-------|-8--8---8----8----|---5-5---5---5-10-|
  .  .   .   .     .   .   .         .  .   .    .        . .   .   .

   Gtr I
|----------------|----------------------|
|----------------|----------------------|
|----------------|----------------------|
|----------------|----------------------|
|------5---8---5-|----88--7--5-3-7--5-3-|
|-0--0---0---0---|-0--------------------|
| .  .   .   .     .  . . .  . . .  . .
|  Gtr II
|----------------|----------------------|
|----------------|----------------------|
|----------------|----------------------|
|----------------|----------------------|
|------5---8---5-|---1212-10-8-7-10-8-7-|
|-0--0---0---0---|-0--------------------|
  .  .   .   .     .  . . .  . . .  . .

   Gtr I,II
|------------------|-------------------|
|------------------|-------------------|
|------------------|-------------------|
|------------------|-------------------|
|------8---12---10p|=8-----7---8-------|
|-8--8---8----8----|---5-5---5---5-10--|
  .  .   .    .        . .   .   .

   Gtr I
|---------------|-----------------|----------------|-----------------|
|---------------|-----------------|----------------|-----------------|
|---------------|-----------------|----------------|-----------------|
|---------------|-----------------|----------------|-----------------|
|------5---5-3--|------5---5-3--0-|------5---5-3---|------5---5-3--0-|
|-0--0---0------|-0--0---0--------|-8--8---8-----8-|-5--5---5--------|
| .  .   .        .  .   .          .  .   .     .   .  .   .
|  Gtr II
|---------------|-----------------|----------------|-----------------|
|---------------|-----------------|----------------|-----------------|
|---------------|-----------------|----------------|-----------------|
|---------------|-----------------|----------------|-----------------|
|------8---8-7--|------8---8-7----|------8---8-7---|------8---8-7----|
|-0--0---0------|-0--0---0-----10-|-8--8---8-----8-|-5--5---5-----10-|
  .  .   .        .  .   .          .  .   .     .   .  .   .

   Gtr I
|---------------|-----------------|----------------|--------------------|
|---------------|-----------------|----------------|--------------------|
|---------------|-----------------|----------------|--------------------|
|---------------|-----------------|----------------|--------------------|
|------5---5-3--|------5---5-3--0-|------5---5-3---|------5---7-8-7-----|
|-0--0---0------|-0--0---0--------|-8--8---8-----8-|-5--5---5-------10--|
| .  .   .        .  .   .          .  .   .     .   .  .   .
|  Gtr II
|---------------|-----------------|----------------|--------------------|
|---------------|-----------------|----------------|--------------------|
|---------------|-----------------|----------------|--------------------|
|---------------|-----------------|----------------|----------5-7-5-----|
|------8---8-7--|------8---8-7----|------8---8-7---|------8----------8--|
|-0--0---0------|-0--0---0-----10-|-8--8---8-----8-|-5--5---5-----------|
  .  .   .        .  .   .          .  .   .     .   .  .   .

   Gtr I
|---------------|----------------|----------------|----------------|
|---------------|----------------|----------------|----------------|
|---------------|----------------|----------------|----------------|
|---------------|----------------|----------------|----------------|
|------5---5-3--|------5---5-3-0-|------5---5-3-0-|------5---5-3-0-|
|-0--0---0------|-0--0---0-------|-8--8---8-------|-5--5---5-------|
| .  .   .        .  .   .         .  .   .         .  .   .
|  Gtr II
|---------------|----------------|----------------|----------------|
|---------------|----------------|----------------|----------------|
|---------------|----------------|----------------|----------------|
|------7---7-5--|------7---7-5---|------7---7-5---|------7---7-5---|
|---------------|--------------7-|--------------7-|--------------7-|
|-0--0---0------|-0--0---0-------|-8--8---8-------|-5--5---5-------|
| .  .   .        .  .   .         .  .   .         .  .   .

   Gtr I
|---------------|----------------|----------------|----------------------|
|---------------|----------------|----------------|----------------------|
|---------------|----------------|----------------|----------------------|
|---------------|----------------|----------------|----------------------|
|------5---5-3--|------5---5-3-0-|------5---5-3-0-|------5---7-8-7----8--|
|-0--0---0------|-0--0---0-------|-8--8---8-------|-5--5---5-------10----|
| .  .   .        .  .   .         .  .   .         .  .   .
|  Gtr II
|---------------|----------------|----------------|----------------------|
|---------------|----------------|----------------|----------------------|
|---------------|----------------|----------------|----------------------|
|------7---7-5--|------7---7-5---|------7---7-5---|------7---5-7-5----7--|
|---------------|--------------7-|--------------7-|-----------------8----|
|-0--0---0------|-0--0---0-------|-8--8---8-------|-5--5---5-------------|
  .  .   .        .  .   .         .  .   .         .  .   .

  Gtrs I, II
|--------------------|---------------------|
|--------------------|---------------------|
|--------------------|---------------------|
|--------------------|---------------------|
|-000--000--000--000-|-0-8-12---12-8----10-|
|-000--000--000--000-|--------8------10----|
  ...  ...  ...  ...

  Gtrs I, II
|--------------------|-----------------|
|--------------------|-----------------|
|--------------------|-----------------|
|--------------------|-----------------|
|-000--000--000--000-|-0-8-7-8---8-0-0-|
|-000--000--000--000-|---------8---0-0-|
  ...  ...  ...  ...               . .

  Gtrs I, II
|--------------------|---------------------|
|--------------------|---------------------|
|--------------------|---------------------|
|--------------------|---------------------|
|-000--000--000--000-|-0-8-12---12-8----10-|
|-000--000--000--000-|--------8------10----|
  ...  ...  ...  ...

  Gtrs I, II
|-------------------------|------------------|
|-------------------------|------------------|
|-------------------------|------------------|
|-------------------------|------------------|
|-------------------------|-0-8-7-8---8-0-0--|
|-0-0-0-0-0-0-0-0-0-0-0-0-|---------8---0-0--|
  . . . . . . . . . . . .               . .

   Gtrs I, II
|--------------------|---------------------|
|--------------------|---------------------|
|--------------------|---------------------|
|--------------------|---------------------|
|-000--000--000--000-|-0-8-12---12-8----10-|
|-000--000--000--000-|--------8------10----|
  ...  ...  ...  ...

   Gtrs I, II
|--------------------|-----------------|
|--------------------|-----------------|
|--------------------|-----------------|
|--------------------|-----------------|
|-000--000--000--000-|-0-8-7-8---8-0-0-|
|-000--000--000--000-|---------8---0-0-|
  ...  ...  ...  ...               . .

   Gtrs I, II
|--------------------|---------------------|
|--------------------|---------------------|
|--------------------|---------------------|
|--------------------|---------------------|
|-000--000--000--000-|-0-8-12---12-8----10-|
|-000--000--000--000-|--------8------10----|
  ...  ...  ...  ...

   Gtrs I, II
|-------------------------|------------------|
|-------------------------|------------------|
|-------------------------|------------------|
|-------------------------|---------------0--|
|-------------------------|-0-8-7-8---8-0-0--|
|-0-0-0-0-0-0-0-0-0-0-0-0-|---------8---0-0--|
  . . . . . . . . . . . .               .


  Gtrs I, II                                                                 2x
||------------------|----------------|---------------------|------------------||
||o-----------------|----------------|---------------------|-----------------o||
||------------------|----------------|---------------------|------------------||
||--(0)-------------|----------------|---------------------|-----------7---0--||
||o-(0)--0000-0--0--|-0--0--000-0--0-|-(0)--0000-0----0000-|-0--00000----8-0-o||
||--(0)--0000-0--0--|-0--0--000-0--0-|-(0)--0000-0----0000-|-0--00000------0--||
         .... .  .    .  .  ... .           .... .    ....   .  .....

  Gtrs I
|-------------------|---------------|----------------|------------------------|
|-------------------|---------------|----------------|------------------------|
|-------------------|---------------|----------------|------------------------|
|-------------------|---------7---0-|-(0)------------|-----------------7----0-|
|(0)--0000-0---0000-|-0--0000---8-0-|-(0)-0000-0--0--|-10-8-7------------8--0-|
|(0)--0000-0---0000-|-0--0000-----0-|-(0)-0000-0--0--|-------10-8-7-8-------0-|
|     .... .   ....   .  ....             .... .  .
|  Gtrs II
|-------------------|---------------|----------------|------------------------|
|-------------------|---------------|----------------|------------------------|
|-------------------|---------------|----------------|------------------------|
|-------------------|---------7---0-|-(0)------------|----------------------0-|
|(0)--0000-0---0000-|-0--0000---8-0-|-(0)-0000-0--0--|-0-----0-------000-0--0-|
|(0)--0000-0---0000-|-0--0000-----0-|-(0)-0000-0--0--|-0-----0-------000-0--0-|
      .... .   ....   .  ....             .... .  .    .     .       ... .


  Gtrs I
|--------------------|----------------|-----------------|----------------------|
|--------------------|----------------|-----------------|----------------------|
|--------------------|----------------|-----------------|----------------------|
|--------------------|----------7---0-|-(0)-------------|--------------------8-|
|(0)--0000-0----0000-|-0--0000----8-0-|-(0)--0000-0--0--|0-----0-------000-0-8-|
|(0)--0000-0----0000-|-0--0000------0-|-(0)--0000-0--0--|0-----0-------000-0-8-|
|     .... .    ....   .  ....               .... .  .   .     .       ... .
|  Gtrs II
|--------------------|----------------|-----------------|----------------------|
|--------------------|----------------|-----------------|----------------------|
|--------------------|----------------|-----------------|----------------------|
|--------------------|----------7---0-|-(0)-------------|--------------------8-|
|(0)--0000-0----0000-|-0--0000----8-0-|-(0)--0000-0--0--|10-8-7--------------8-|
|(0)--0000-0----0000-|-0--0000------0-|-(0)--0000-0--0--|------10-8-7-8-10-7-8-|
      .... .    ....   .  ....               .... .  .


   Gtrs I, II                                                                4x
|------------------|-----------------|-----------------|-----------------------|
|o-----------------|-----------------|-----------------|----------------------o|
|------------------|-----------------|-----------------|-----------------------|
|-(8)-------10---5-|(5)-------10---0-|(0)-------10-----|----------------7---8--|
|o(8)-8-7-8----8-5-|(5)-8-7-8----8-0-|(0)-8-7-8----8-7-|10-8-7------------8-8-o|
|-(8)------------5-|(5)------------0-|(0)--------------|-------10-8-7-8-----8--|


   Gtr I
|-------------------|-------------------|
|-------------------|-------------------|
|-------------------|-------------------|
|-(8)--------10---5-|-(5)--------10---0-|
|-(8)--8-7-8----8-5-|-(5)--8-7-8----8-0-|
|-(8)-------------5-|-(5)-------------0-|
|
|  Gtr II
|-------------------|-------------------|
|-------------------|-------------------|
|-------------------|-------------------|
|-(8)-------------5-|-(5)-------------0-|
|-(8)-------------5-|-(5)-------------0-|
|-(8)-------------5-|-(5)-------------0-|

  Gtrs I, II
|----------------------|---------------------|
|----------------------|---------------------|
|----------------------|---------------------|
|-(0)------------------|---------------------|
|-(0)-0--000--000--000-|-0-8-12---12-8----10-|
|-(0)-0--000--000--000-|--------8------10----|
      .  ...  ...  ...

  Gtrs I, II
|--------------------|-----------------|
|--------------------|-----------------|
|--------------------|-----------------|
|--------------------|-----------------|
|-000--000--000--000-|-0-8-7-8---8-0-0-|
|-000--000--000--000-|---------8---0-0-|
  ...  ...  ...  ...               . .

  Gtrs I, II
|--------------------|---------------------|
|--------------------|---------------------|
|--------------------|---------------------|
|--------------------|---------------------|
|-000--000--000--000-|-0-8-12---12-8----10-|
|-000--000--000--000-|--------8------10----|
  ...  ...  ...  ...

  Gtrs I, II
|--------------------|-----------------|
|--------------------|-----------------|
|--------------------|-----------------|
|--------------------|-----------------|
|-000--000--000--000-|-0-8-7-8---8-0-0-|
|-000--000--000--000-|---------8---0-0-|
  ...  ...  ...  ...               . .

  Gtr I
|--------------------|---------------------|
|--------------------|---------------------|
|--------------------|---------------------|
|--------------------|---------------------|
|-000--000--000--000-|-0-5-8-----8-5----7--|
|-000--000--000--000-|--------8------10----|
| ...  ...  ...  ...
|  Gtr II
|--------------------|---------------------|
|--------------------|---------------------|
|--------------------|---------------------|
|--------------------|---------------------|
|-000--000--000--000-|-0-8-12---12-8----10-|
|-000--000--000--000-|--------8------10----|
  ...  ...  ...  ...

   Gtr I
|--------------------|-----------------|
|--------------------|-----------------|
|--------------------|-----------------|
|--------------------|-----------------|
|-000--000--000--000-|-0-5-3-5-1-5-0-0-|
|-000--000--000--000-|-------------0-0-|
| ...  ...  ...  ...               . .
|  Gtr II
|--------------------|-----------------|
|--------------------|-----------------|
|--------------------|-----------------|
|--------------------|-----------------|
|-000--000--000--000-|-0-8-7-8---8-0-0-|
|-000--000--000--000-|---------8---0-0-|
  ...  ...  ...  ...               . .

  Gtr I
|--------------------|---------------------|
|--------------------|---------------------|
|--------------------|---------------------|
|--------------------|---------------------|
|-000--000--000--000-|-0-5-8-----8-5----7--|
|-000--000--000--000-|--------8------10----|
| ...  ...  ...  ...
|  Gtr II
|--------------------|---------------------|
|--------------------|---------------------|
|--------------------|---------------------|
|--------------------|---------------------|
|-000--000--000--000-|-0-8-12---12-8----10-|
|-000--000--000--000-|--------8------10----|
  ...  ...  ...  ...

   Gtr I
|--------------------|-----------------|
|--------------------|-----------------|
|--------------------|-----------------|
|--------------------|---------------8-|
|-000--000--000--000-|-0-5-3-5-1-5-0-8-|
|-000--000--000--000-|-------------0-8-|
| ...  ...  ...  ...               .
|  Gtr II
|--------------------|-----------------|
|--------------------|-----------------|
|--------------------|-----------------|
|--------------------|---------------8-|
|-000--000--000--000-|-0-8-7-8---8-0-8-|
|-000--000--000--000-|---------8---0-8-|
  ...  ...  ...  ...               .

   Gtr I
|-----------------|------------------|------------------|----------------------|
|-----------------|------------------|------------------|----------------------|
|-----------------|------------------|------------------|----------------------|
|(8)-------10---5-|-(5)-------10---0-|-(0)-------10-----|----------------7---8-|
|(8)-8-7-8----8-5-|-(5)-8-7-8----8-0-|-(0)-8-7-8----8-7-|10-8-7------------8-8-|
|(8)------------5-|-(5)------------0-|-(0)--------------|-------10-8-7-8-----8-|
|
|  Gtr II
|-----------------|------------------|------------------|----------------------|
|-----------------|------------------|------------------|----------------------|
|-----------------|------------------|------------------|----------------------|
|(8)-------10---5-|-(5)-------10---0-|-(0)--------------|(0)-----------------8-|
|(8)-8-7-8----8-5-|-(5)-8-7-8----8-0-|-(0)--------------|(0)-----------------8-|
|(8)------------5-|-(5)------------0-|-(0)--------------|(0)-----------------8-|


   Gtr I
|-----------------|------------------|-----------------|-----------------------|
|-----------------|------------------|-----------------|-----------------------|
|-----------------|------------------|-----------------|-----------------------|
|(8)-------10---5-|-(5)-------10---0-|(0)-------10-----|-----------------7---8-|
|(8)-8-7-8----8-5-|-(5)-8-7-8----8-0-|(0)-8-7-8----8-7-|-10-8-7------------8-8-|
|(8)------------5-|-(5)------------0-|(0)--------------|--------10-8-7-8-----8-|
|
|  Gtr II
|-----------------|------------------|-----------------|-----------------------|
|-----------------|------------------|-----------------|-----------------------|
|-----------------|------------------|-----------------|---------------------7-|
|(8)------------5-|-(5)------------0-|(0)--------------|-(0)-------------------|
|(8)------------5-|-(5)------------0-|(0)--------------|-(0)-------------------|
|(8)------------5-|-(5)------------0-|(0)--------------|-(0)-------------------|


   Gtr I
|-----------------|------------------|-----------------|-----------------------|
|-----------------|------------------|-----------------|-----------------------|
|-----------------|------------------|-----------------|-----------------------|
|(8)-------10---5-|-(5)-------10---0-|(0)-------10-----|-----------------7---8-|
|(8)-8-7-8----8-5-|-(5)-8-7-8----8-0-|(0)-8-7-8----8-7-|-10-8-7------------8-8-|
|(8)------------5-|-(5)------------0-|(0)--------------|--------10-8-7-8-----8-|
|
|  Gtr II
|-----------------|------------------|-----------------|-----------------------|
|-----------------|------------------|-----------------|-----------------------|
|(7)--------------|------------------|-----------------|-----------------------|
|--------------8--|-(8)------------7-|-(7)-------------|-(7)----------------10-|
|-----------------|------------------|-----------------|-----------------------|
|-----------------|------------------|-----------------|-----------------------|


   Gtr I
|--------------------|-----------------|
|--------------------|-----------------|
|--------------------|-----------------|
|--(8)--------10---5-|-(5)--------10---|
|--(8)--8-7-8----8-5-|-(5)--8-7-8----8-|
|--(8)-------------5-|-(5)-------------|
|
|  Gtr II
|--------------------|-----------------|
|--------------------|-----------------|
|--------------------|-----------------|
|-(10)-------------8-|-(8)-------------|
|--------------------|-----------------|
|--------------------|-----------------|


   Gtr I
|----------------|--------------------|------------------|-------------------|
|----------------|--------------------|------------------|-------------------|
|----------------|--------------------|------------------|-------------------|
|----------------|---5----------------|------------------|-------------------|
|-0----5---8---5-|-------8----7h=8p=7-|------8---12---10p|=8-----7---8-------|
|-0--0---0---0---|-0---0---0----------|-8--8---8----8----|---5-5---5---5-10--|
| .  .   .   .     .   .   .            .  .   .    .        . .   .   .
|  Gtr II
|----------------|--------------------|------------------|-------------------|
|----------------|--------------------|------------------|-------------------|
|----------------|--------------------|------------------|-------------------|
|----------------|--------------------|------------------|-------------------|
|-0--------------|---0---0---10h12p10-|------8---12---10p|=8-----7---8-------|
|-0--------------|---0---0------------|-8--8---8----8----|---5-5---5---5-10--|
  .                  .   .              .  .   .    .        . .   .   .

   Gtr I
|----------------|-------------------|------------------|-------------------|
|----------------|-------------------|------------------|-------------------|
|----------------|-------------------|------------------|-------------------|
|----------------|-------------------|------------------|-------------------|
|------5---8---5-|-7-7-8-7-5-3-7-5-3-|------8---12---10p|=8-----7---8-------|
|-0--0---0---0---|-------------------|-8--8---8----8----|---5-5---5---5-10--|
| .  .   .   .                         .  .   .    .        . .   .   .
|  Gtr II
|----------------|-------------------|------------------|-------------------|
|----------------|-------------------|------------------|-------------------|
|----------------|-------------------|------------------|-------------------|
|----------------|-5-5-7-5-3---5-3---|------------------|-------------------|
|------5---8---5-|-----------7-----7-|------8---12---10p|=8-----7---8-------|
|-0--0---0---0---|-------------------|-8--8---8----8----|---5-5---5---5-10--|
  .  .   .   .                         .  .   .    .        . .   .   .

   Gtrs I, II
|----------------|--------------------|------------------|-------------------|
|----------------|--------------------|------------------|-------------------|
|----------------|--------------------|------------------|-------------------|
|----------------|---5----------------|------------------|-------------------|
|-0----5---8---5-|-------8----7h=8p=7-|------8---12---10p|=8-----7---8-------|
|-0--0---0---0---|-0---0---0----------|-8--8---8----8----|---5-5---5---5-10--|
| .  .   .   .     .   .   .            .  .   .    .        . .   .   .

   Gtr I
|----------------|-------------------|------------------|-------------------|
|----------------|-------------------|------------------|-------------------|
|----------------|-------------------|------------------|-------------------|
|----------------|-------------------|------------------|-------------------|
|------5---8---5-|-7-7-8-7-5-3-7-5-3-|------8---12---10p|=8-----7---8-------|
|-0--0---0---0---|-------------------|-8--8---8----8----|---5-5---5---5-10--|
| .  .   .   .                         .  .   .    .        . .   .   .
|  Gtr II
|----------------|-------------------|------------------|-------------------|
|----------------|-------------------|------------------|-------------------|
|----------------|-------------------|------------------|-------------------|
|----------------|-5-5-7-5-3---5-3---|------------------|-------------------|
|------5---8---5-|-----------7-----7-|------8---12---10p|=8-----7---8-------|
|-0--0---0---0---|-------------------|-8--8---8----8----|---5-5---5---5-10--|
  .  .   .   .                         .  .   .    .        . .   .   .

   Gtrs I, II
|------------------|------------------|--------------------|
|------------------|------------------|--------------------|
|------------------|------------------|--------------------|
|------------------|------------------|--------------------|
|------8---12---10p|=8-----7---8------|------8---12---10p8-|
|-8--8---8----8----|---5-5---5---5-10-|-8--8---8----8------|
  .  .   .    .        . .   .   .      .  .   .    .

   Gtrs I, II
|-----------------|
|-----------------|
|-----------------|
|-----------------|
|-5-5-5-5-5-5-5-5-|
|-5-5-5-5-5-5-5-5-|
  . . . . . . . .

   Gtrs I, II                         3x
||-----------------|------------------||
||o----------------|-----------------o||
||-----------------|------------------||
||-----------------|------------------||
||o-000-000--000-0-|-000-000-000-000-o||
||--000-000--000-0-|-000-000-000-000--||
    ... ...  ... .   ... ... ... ...

   Gtrs I, II
|-----------------|-------------------------|
|-----------------|-------------------------|
|-----------------|-------------------------|
|-----------------|--------------[7]-(7)b8--|
|--000-000--000-0-|-000-000-----------------|
|--000-000--000-0-|-000-000--12\------------|
   ... ...  ... .   ... ...

   Gtrs I, II                                                                 2x
|---------------|----------------------|---------------|-----------------------|
|o--------------|----------------------|---------------|----------------------o|
|---------------|----------------------|---------------|-----------------------|
|---------------|----------------------|---------------|----------------7------|
|o-000-000-000-0|-000-000-10-8-7-------|-000-000-000-0-|10-8-7------------8---o|
|--000-000-000-0|-000-000--------10-8-7|-000-000-000-0-|-------10-8-7-8-----8--|
   ... ... ... .  ... ...                ... ... ... .

  Visit MetalTabs.com for more metal tablature

bottom separator

Contact Us | Privacy Policy | Disclaimer | Legal Notice
Copyright © 2001-2014 MetalTabs.com. All Rights Reserved.