#----------------------------------PLEASE NOTE---------------------------------#
#This file is the author's own work and represents their interpretation of the #
#song. You may only use this file for private study, scholarship, or research. #
#Unless specified otherwise, this is NOT an official tab from the band members.#
#------------------------------------------------------------------------------#

  Visit MetalTabs.com for more metal tablature
  
Graveworm
Engraved in Black
Legions Unleashed

Mayl at:
Chayns of Demolishment: infernal_purge@hotmail.com

Note: this is a 7-string guitar tab,
so it is tune down 2 whole steps for 6-strings
             E |
             B |      B |
             G |      F#|  (for 6-strings: read one fret higher or tune as G)
             D |  OR  D |
             A |      A |
             E |      E |
             B |      B |

Note:
=  let ring
  slide down
X  muted note
.  (on itself) palm mute
.  (behind a number) staccato note

Riff 1 (three times):
|-----------------------------------|-----------------------------------|
|-----------------------------------|-----------------------------------|
|-----------------------------------|-----------------------------------|
|------------------4444444444444444-|------------------5555555555555555-|
|-----444455557777------------------|-----444455557777------------------|
|-7777------------------------------|-7777------------------------------|
|-----------------------------------|-----------------------------------|

|-----------------------------------|-----------------------------------|
|-----------------------------------|-----------------------------------|
|-----------------------------------|-----------------------------------|
|------------------44444444---------|-----------------------------------|
|-----444455557777---------55554444-|-----444455557777-----777755554444-|
|-7777------------------------------|-7777-------------7777-------------|
|-----------------------------------|-----------------------------------|

Riff 2:
|-----------------------------------|-----------------------------------|
|-----------------------------------|-----------------------------------|
|-----------------------------------|-----------------------------------|
|-----------------------------------|-----------------------------------|
|-5555555555555555-5555777755554444-|-5555555555555555-5555555555555555-|
|-----------------------------------|-----------------------------------|
|-----------------------------------|-----------------------------------|

|-----------------------------------|-----------------------------------|
|-----------------------------------|-----------------------------------|
|-----------------------------------|-----------------------------------|
|-----------------------------------|-----------------------------------|
|-----------------------------------|-----------------------------------|
|-4444444444444444-4444444444444444-|-----------------------------------|
|-----------------------------------|-5555555555555555-5555555555555555-|

|-----------------------------------|-----------------------------------|
|-----------------------------------|-----------------------------------|
|-----------------------------------|-----------------------------------|
|-----------------------------------|------------------444444444444-----|
|-5555555555555555-5555777755554444-|-5555555555555555-------------7777-|
|-----------------------------------|-----------------------------------|
|-----------------------------------|-----------------------------------|

|-----------------------------------|-----------------------------------|
|-----------------------------------|-----------------------------------|
|-----------------------------------|-----------------------------------|
|-4444444444444444-4444444444444444-|-4444444444444444-4444444444444444-|
|-----------------------------------|-----------------------------------|
|-----------------------------------|-----------------------------------|
|-----------------------------------|-----------------------------------|

Keyboard fill

Riff 3:
|-----------------------------------|-----------------------------------|
|-----------------------------------|-----------------------------------|
|-----4444----4444-----4444----4444-|-----4444----4444-----4444----4444-|
|-7777----5555-----4444-------------|------------------4444----5555-----|
|--------------------------7777-----|-5555----7777----------------------|
|-----------------------------------|-----------------------------------|
|-----------------------------------|-----------------------------------|
Three times and then:
|-----------------------------------|-----------------------------------|
|-----------------------------------|-----------------------------------|
|-----4444--------------------------|-----------------------------------|
|-7777----55555555-44444444---------|-----------------------------------|
|--------------------------77777777-|-5555555544444444-5555555544444444-|
|-----------------------------------|-----------------------------------|
|-----------------------------------|-----------------------------------|
Left Guitar:                     Right Guitar:
|--------------------|           |--------------------|
|--------------------|           |--------------------|
|--------------------|           |-----------4======-|
|------4===-5======-|           |-5===-7===----------|
|-7===---------------|           |--------------------|
|--------------------|           |--------------------|

Riff 4:
|-----------------------------------|-----------------------------------|
|-----------------------------------|-----------------------------------|
|-----------------------------------|-----------------------------------|
|-----------------------------------|-----------------------------------|
|-----------------------------------|-----------------------------------|
|-2-2-2-2-2-2-2-2--2-2-2-2-2-2-2-2--|-2-2-2-2-2-2-2-2--2-2-2-2-2-2-2-2--|
|-0-0-0-0-0-0-0-0--0-0-0-0-0-0-0-0--|-0-0-0-0-0-0-0-0--0-0-0-0-0-0-0-0--|

|-----------------------------------|-----------------------------------|
|-----------------------------------|-----------------------------------|
|-----------------------------------|-----------------------------------|
|-----------------------------------|-----------------------------------|
|-----------------------------------|-----------------------------------|
|-5-5-5-5-5-5-5-5--X-X-5-5-5-5-4-4--|-5-5-5-5-5-5-5-5--5-5-5-5-X-X-X-X--|
|-3-3-3-3-3-3-3-3--X-X-3-3-3-3-2-2--|-3-3-3-3-3-3-3-3--3-3-3-3-X-X-X-X--|

|-----------------------------------|-----------------------------------|
|-----------------------------------|-----------------------------------|
|-----------------------------------|-----------------------------------|
|-----------------------------------|-----------------------------------|
|-----------------------------------|-----------------------------------|
|-2-2-2-2-X-X-2-2--2-2-2-.-2-2-2-2--|-2-2-2-2-2-2-2-2--2-2-2-2-2-2-2-2--|
|-0-0-0-0-X-X-0-0--0-0-0-.-0-0-0-0--|-0-0-0-0-0-0-0-0--0-0-0-0-0-0-0-0--|

Riff 2 agayn

Riff 5
|-----------------------------------|-----------------------------------|
|-----------------------------------|-----------------------------------|
|-----------------------------------|-----------------------------------|
|-----------------------------------|-----------------------------------| twice
|-----------------------------------|-4=--4-4-4=--4-4=---4-4-4-4=--4-4--|
|-2-2-2-2-2=--2-2=---2-2-2-2=--2-2--|-2=--2-2-2=--2-2=---2-2-2-2=--2-2--|
|-0-0-0-0-0=--0-0=---0-0-0-0=--0-0--|-----------------------------------|

|-----------------------------------|-----------------------------------|
|-----------------------------------|-----------------------------------|
|-----------------------------------|-----------------------------------|
|-----------------------------------|-----------------------------------| twice
|-----------------------------------|-4=--4-4-4=--4-4=---4-4-4-4=--4-4--|
|-5-5-5-5-5=--5-5=---5-5-5-5=--5-5--|-2=--2-2-2=--2-2=---2-2-2-2=--2-2--|
|-3-3-3-3-3=--3-3=---3-3-3-3=--3-3--|-----------------------------------|

|-----------------------------------|-----------------------------------|
|-----------------------------------|-----------------------------------|
|-----------------------------------|-----------------------------------|
|-----------------------------------|-----------------------------------| twice
|-----------------------------------|-4=--4-4-4=--4-4=---4-4-4-4=--4-4--|
|-2-2-2-2-2=--2-2=---2-2-2-2=--2-2--|-2=--2-2-2=--2-2=---2-2-2-2=--2-2--|
|-0-0-0-0-0=--0-0=---0-0-0-0=--0-0--|-----------------------------------|

|-----------------------------------|-----------------------------------|
|-----------------------------------|-----------------------------------|
|-----------------------------------|-----------------------------------|
|-----------------------------------|-----------------------------------|
|-5====-------4==--2====------------|--------------------------triplets-|
|-3====-------2==--0====---5-4-.-5--|-2===============-----------2.2.2.-|
|--------------------------3-2-.-3--|-0===============-----------0.0.0.-|

                                    |-----------------------------------|
                                    |-----------------------------------|
                                    |-----------------------------------|
                                    |-----------------------------------|
                                    |-----------------------------------|
                                    |-2===============------------------|
                                    |-0===============------------------|

Bridge to riff 6:
|-----------------|
|-----------------|
|-----------------|
|-4.--------------|
|-4.--4=--5=--4=--|
|-2.--4=--5=--4=--|
|-----2=--3=--2=--|

Riff 6:
|-----------------------------------|-----------------------------------|
|-----------------------------------|-----------------------------------|
|-----------------------------------|-----------------------------------|
|---------44444444---------55555555-|-44444444---------444444442.-------|
|-22222222---------55555555---------|---------44444444------------------|
|-----------------------------------|-----------------------------------|
|-----------------------------------|-----------------------------------|

|-----------------------------------|-----------------------------------|
|-----------------------------------|-----------------------------------|
|-----------------------------------|-----------------------------------|
|---------44444444---------55555555-|-44444444-----------------22222222-|
|-22222222---------55555555---------|---------44444444-55555555---------|
|-----------------------------------|-----------------------------------|
|-----------------------------------|-----------------------------------|

Riff 7:
|-----------------------------------|-----------------------------------|
|-----------------------------------|-----------------------------------|
|-----------------------------------|-----------------------------------|
|-----------------------------------|-----------------------------------|
|-----------------------------------|------------------3=b=r=b=r=b=r=b--| twice
|-2===============------------------|---------2.2.2.2.-3====------------|
|-0===============------------------|---------0.0.0.0.-1====------------|
Note: the bended notes are half step bends and for the Right Guitar only!
The non-bended notes underneath the bended notes are for the Left Guitar.

|-----------------------------------|-----------------------------------|
|-----------------------------------|-----------------------------------|
|-----------------------------------|-----------------------------------|
|-----------------------------------|-----------------------------------|
|-----------------------------------|------------------3=b=r=b=r=b=r=b--|
|-2===----2.2.2.2.-2===----2.2.2.2.-|-2===----2.2.2.2.-3====------------|
|-0===----0.0.0.0.-0===----0.0.0.0.-|-0===----0.0.0.0.-1====------------|
Riff 2 agayn

Ending riff (six times):
|-----------------------------------|-----------------------------------|
|-----------------------------------|-----------------------------------|
|-----------------------------------|-----------------------------------|
|-----------------------------------|-----------------------------------|
|-----------------------------------|-4=--4-4-4=--4-4=---4-4-4-4=--4-4--|
|-2-2-2-2-2=--2-2=---2-2-2-2=--2-2--|-2=--2-2-2=--2-2=---2-2-2-2=--2-2--|
|-0-0-0-0-0=--0-0=---0-0-0-0=--0-0--|-----------------------------------|

Any corrections except for personality corrections are very welcome!

  Visit MetalTabs.com for more metal tablature