top separator

Home

Forum

What's New

Submit a Tab

FAQ

Links

Contact Us

Link to Us

MetalTabs.com logo

Bands

0-9

A

B

C

D

E

F

G

H

I

J

K

L

M

N

O

P

Q

R

S

T

U

V

W

X

Y

Z

Search

What

Where
 

Impetigo - "Revenge of The Scabby Man" Guitar Tab

Plain Text Version
More Impetigo Tabs

Hits: 2550
Rated: 5.00 out of 5 (1 vote)
Updated: 2006-06-21 10:00:29

 

By:

Casketcrusher

sendpm.gif

email.gif

Important note
This tab is available online because we obtained explicit permission from Impetigo or their label.


#----------------------------------PLEASE NOTE---------------------------------#
#This file is the author's own work and represents their interpretation of the #
#song. You may only use this file for private study, scholarship, or research. #
#Unless specified otherwise, this is NOT an official tab from the band members.#
#------------------------------------------------------------------------------#

  Visit MetalTabs.com for more metal tablature
  
Band:  IMPETIGO
Album: GIALLO DEMO
Song:  REVENGE OF THE SCABBY MAN

Copyright (c)  SELF Produced but latter released on Half life Records (1989)
Version 1.0 - 05/14/2006

Transcribed By: Casketcrusher
Email:          cannibalistic_corpsegrinder@hotmail.com


.  - palm mute           /  - slide up to
\  - slide down to       ~  - vibrato
h  - hammer on           b  - Bend
p  - pull off            Suffixes for bend
t  - tap                 f  - full bend    h - half bend
ph - pinched harmonic    q  - quarter bend t - tap bend
*  - see comment         ^  - Hold bend    r release bend
x  - Stuccatto           ~  - vibrato bend
,  - slight palm mute    () - ghost note, sustained note
"  - tremolo note        <> - Trill

RAAARR!!! Here is yet another tab from the might Impetigo.
Listen to song for time and order of riffs.
Tuning C#,F#,B,E,G#,C#




Bass Intro (Heavy fuzz)

|------------------------------------------|
|------------------------------------------|
|77--77--77--3-5--77--77---77---3-5--------|
|--00--00--00-------00---00---00-----------|

Bass intro cont.

|----------555555-33----|
|-------------------5---|
|3333333333-------------|
|-----------------------|

|------------9-7--------|
|---------------9-8-7---|
|3333333333-7--------9-8|
|-----------------------|
This part is hard to hear.

Guitar comes in
Riff 1
|------------------------------------------|
|------------------------------------------|
|------------------------------------------|
|--99--99--99--5-7-99--99--99--5-7---------|
|\-77--77--77--3-5-77--77--77--3-5---------|
|\*--00--00--00------00--00--00------------|
     ..  ..  ..      ..  ..  ..
*You can either slide or pick scrape.
Riff 1 cont.

|------------------------------------------|
|------------------------------------------|
|------------------------------------------|
|-55--55--55--5-7-55--55--55-5-7-----------|
|-33--33--33--3-5-33--33--33-3-5-----------|
|---00--00----------00--00-----------------|
    ..  ..          ..  ..

Repeat that a shit load of times.

Then

|------------------------------------------|
|------------------------------------------|
|------------------------------------------|
|99----------------------------------------|
|77-HOLD-----------------------------------|
|------------------------------------------|

Now this next part is anybody’s guess.
The production is pretty bad so this is fucking
impossible to heard.
|------------------------------------------|
|------------------------------------------|
|------------------------------------------|
|------------------------------------------|
|\\----------------------------------------|
|\\5555555500330033------------------------|
   ................
Slide twice

|------------------------------------------|
|------------------------------------------|
|------------------------------------------|
|------------------------------------------|
|2--This is repeated a shit load of times--|
|0-----------------------------------------|
 .
Well that’s all the riffs.Figure out in what order they go and stuff.
 I’ll do some more Impetigo soon. I’ve got the first riff of
“I Work For The Street Cleaner” down but not the rest.
 I also am almost done “WIZARD OF GORE”.
Stay tunned and stay sleazy.

  Visit MetalTabs.com for more metal tablature

bottom separator

Contact Us | Privacy Policy | Disclaimer | Legal Notice
Copyright © 2001-2014 MetalTabs.com. All Rights Reserved.