top separator

Home

Forum

What's New

Submit a Tab

FAQ

Links

Contact Us

Link to Us

MetalTabs.com logo

Bands

0-9

A

B

C

D

E

F

G

H

I

J

K

L

M

N

O

P

Q

R

S

T

U

V

W

X

Y

Z

Search

What

Where
 

Visceral Bleeding (SE) - "Fire Took His Face" Guitar Tab

Plain Text Version
More Visceral Bleeding (SE) Tabs

Hits: 2205
Updated: 2006-06-21 10:00:12

 

By:

Robbie Filth

sendpm.gif

email.gif

Important note
This tab is available online because we obtained explicit permission from Visceral Bleeding (SE) or their label.


#----------------------------------PLEASE NOTE---------------------------------#
#This file is the author's own work and represents their interpretation of the #
#song. You may only use this file for private study, scholarship, or research. #
#Unless specified otherwise, this is NOT an official tab from the band members.#
#------------------------------------------------------------------------------#

  Visit MetalTabs.com for more metal tablature
  
Band: Visceral Bleeding (SE)
Album: Transcend info Ferocity
Song: Fire Took His Face
Record Label: Neurotic Records
Tuning: B E A D G B

----------------------------------------------------------------
----------------------------------------------------------------
----------------------------------ph-----ph-----ph--------------
----------------------------------9------6------9---------------
----------------7h10p7-6h9p6-----------------------2-------vib--
-8765-7654-8765--------------8765---8765---8765----0-4-5-6-5----
 pm.. .... ....              ....   ....   ....    .

----------------------------------------------------------------
----------------------------------------------------------------
----------------------------------------------------------------
---------------------10\9---9\8---8\7----------------5----------
----------------------8\7---7\6---6\5----------------3-4-5-3-4--
-8765-7654-8765-7654------0-----0-----8765-7654-8765---2-3-1-2--
 pm.. .... .... ....      .     .     .... .... ....

--------------------------------------------------------------------------
--------------------------------------------------------------------------
-------ph-----ph-----ph---------------------------------------------------
-------9------6------9----------------------------------10\9---9\8---8\7--
------------------------2-------vib----------------------8\7---7\6---6\5--
--8765---8765---8765----0-4-5-6-5---8765-7654-8765-7654------0-----0------
  pm..   ....   ....    .           .... .... .... ....      .     .

----------------------------------------------------------------
----------------------------------------------------------------
----------------------------------ph-----ph-----ph--------------
----------------------------------9------6------9---------------
----------------7h10p7-6h9p6-----------------------2-------7----
-8765-7654-8765--------------8765---8765---8765----0-4-5-6-5----
 pm.. .... ....              ....   ....   ....    .

----------------------------------------------------------
----------------------------------------------------------
----------------------------------------------------------
-----------------------------------------6\5--------------
---------------------8765-7654-8765-7654-4\3-2-5-6-5-4-5--
-8765-7654-8765-7654-------------------------0-3-4-3-2-3--
 pm.. .... .... .... .... .... .... ....     .

----------------------------------------------------------------------------
----------------------------------------------------------------------------
----------------------------------------------------------------------------
---------------------------7-6-7-6-4-5-----4-4-----------------7-5h8--------
---------------------5-6-5-5-4-5-4-2-3-5-4-2-2-5h8p5h8p5h8-4h7-5-----4h7-5--
-8765-7654-8765-7654-3-4-3-------------3-2-------------------------------3--
 pm.. .... .... .... . . .             . .

--------------------------------------------------------------------------------
--------------------------------------------------------------------------------
--------------------------------------------------------------------------------
-------7-6-7-6-4-5-----4-5-------------------------3-5/6-------1-3/4-------6-79-
-5-6-5-5-4-5-4-2-3-5-4-2-3-5-7/8-------3-5/6-------------------------------4-57-
-3-4-3-------------3-2-----------3-5/6-------1-3/4-------3-5/6-------1-3/4------
 pm. .             . .

----------------------------------------------------
----------------------------------------------------
----------------------------------------------------
----------------------------------------------------
-----------------------------------------------7-6--
-888-777-666-88-77-10-10-9-8-888-777-666-88-77-5-4--
 trem......................................... pm.

-----------------------------------------------------------------------
-----------------------------------------------------------------------
-----------------------------------------------------------------------
---------------------------------------------------7-6-5---8-----------
-----------------------------------------------7-6-5-4-3---6--4-5-4-3--
-888-777-666-88-77-10-10-9-8-888-777-666-88-77-5-4-------0----2-3-2-1--
 trem......................................... pm.       .

----------------------------------------------------
----------------------------------------------------
----------------------------------------------------
----------------------------------------------------
-----------------------------------------------7-6--
-888-777-666-88-77-10-10-9-8-888-777-666-88-77-5-4--
 trem......................................... pm.

----------------------------------------------------
----------------------------------------------------
----------------------------------------------------
----------------------------------------------------
-----------------------------------------------7-6--
-888-777-666-88-77-10-10-9-8-888-777-666-88-77-5-4--
 trem......................................... pm.

------------------------------------------------------------------
------------------------------------------------------------------
------------------------------------------------------------------
------------------------------------------------------------------
-334-----112-----334-----112-----667-----445-----667-----445------
-----334-----112-----334-----112-----667-----445-----667-----445--

------------------------------------------------------------------
------------------------------------------------------------------
-------ph------ph------ph------ph------ph------ph------ph------ph-
-------3-------3-------3-------3-------3-------3-------3-------3--
-334-5---112-3---334-5---112-3---334-5---112-3---334-5---112-3----
-----3-------1-------3-------1-------3-------1-------3-------1----
    pm       .       .       .       .       .       .       .

--------------------------------------
--------------------------------------
--------------------------------------
---------------------6-5--------------
---------------------4-3-2-5-6-5-4-5--
-8765-7654-8765-7654-----0-3-4-3-2-3--X2
 pm.. .... .... ....     .

------------------------------
------------------------------
------------------------------
-----3-4-3---------------8----
-222-1-2-1-4-5-4-3-4-3-4-6-7--
-000-------2-3-2-1-2-1-2---5--
 pm.             . . . .

----------------------------------------------------------------
----------------------------------------------------------------
----------------------------------ph-----ph-----ph--------------
----------------------------------9------6------9---------------
----------------7h10p7-6h9p6-----------------------2-------vib--
-8765-7654-8765--------------8765---8765---8765----0-4-5-6-5----
 pm.. .... ....              ....   ....   ....    .

----------------------------------------------------------------
----------------------------------------------------------------
----------------------------------------------------------------
---------------------10\9---9\8---8\7----------------5----------
----------------------8\7---7\6---6\5----------------3-4-5-3-4--
-8765-7654-8765-7654------0-----0-----8765-7654-8765---2-3-1-2--
 pm.. .... .... ....      .     .     .... .... ....

--------------------------------------------------------------------------
--------------------------------------------------------------------------
-------ph-----ph-----ph---------------------------------------------------
-------9------6------9----------------------------------10\9---9\8---8\7--
------------------------2-------vib----------------------8\7---7\6---6\5--
--8765---8765---8765----0-4-5-6-5---8765-7654-8765-7654------0-----0------
  pm..   ....   ....    .           .... .... .... ....      .     .

------------------------------------------------------------
------------------------------------------------------------
----------------------------------ph-----ph-----ph----------
----------------------------------9------6------9-----------
----------------7h10p7-6h9p6-----------------------2--------
-8765-7654-8765--------------8765---8765---8765----0-4-5-6--
 pm.. .... ....              ....   ....   ....    .

--------------------------------------------------------------------
--------------------------------------------------------------------
---------------------------------------ph------ph------ph------ph---
---------------------------------------3-------3-------3-------3-5--
-334-----112-----667-----445-----334-5---112-3---334-5---112-3---3--
-----334-----112-----667-----445-----3-------1-------3-------1------
                                     pm      .       .       .

------------------
------------------
------------------
-6-5--------------
-4-3-2-5-6-5-4-5--
-----0-3-4-3-2-3--
    pm

--------------------------------------
--------------------------------------
--------------------------------------
---------------------6-5--------------
---------------------4-3-2-5-6-5-4-5--
-8765-7654-8765-7654-----0-3-4-3-2-3--X2
 pm.. .... .... ....     .

--------------------------------------------------------------
--------------------------------------------------------------
---------------------------------------4h5p4---6h7p6----------
-----3-4-3---------------8-----4h5p4-------------------5-4----
-222-1-2-1-4-5-4-3-4-3-4-6-7-5-------------------------3-2----
-000-------2-3-2-1-2-1-2---5-3-------0-------0-------0-----0--
 pm.             . . . .             .       .       .     .

--------------------------------------------
--------------------------------------------
---------4h5p4---7h8p7----------------------
-4h5p4-------------------5-4-----5-4--------
-------------------------3-2-5-4-3-2-5-4-4--
-------0-------0-------0-----3-2-----3-2-2--
      pm       .       .     . .

-------------------------------------------------------
-------------------------------------------------------
-------------------------------------------------------
--------7-6-7-6-4-5-----4-4-----------------7-5h8------
--5-6-5-5-4-5-4-2-3-5-4-2-2-5h8p5h8p5h8-4h7-5-----4h7--
--3-4-3-------------3-2--------------------------------
  . . .             . .

----------------------------------------------------------------------------
----------------------------------------------------------------------------
----------------------------------------------------------------------------
-------7-6-7-6-4-5-----4-5-------------------------3-5/6-------1-3/4--------
-5-6-5-5-4-5-4-2-3-5-4-2-3-5-7/8-------3-5/6--------------------------------
-3-4-3-------------3-2-----------3-5/6-------1-3/4-------3-5/6-------1-3/4--
 pm. .             . .

-------------------------------------------------------
-------------------------------------------------------
-------------------------------------------------------
--------7-6-7-6-4-5-----4-4-----------------7-5h8------
--5-6-5-5-4-5-4-2-3-5-4-2-2-5h8p5h8p5h8-4h7-5-----4h7--
--3-4-3-------------3-2--------------------------------
  . . .             . .

-------------------------------------------------------------------------------
-------------------------------------------------------------------------------
-------------------------------------------------------------------------------
-------7-6-7-6-4-5-----4-5-------------------------3-5/6-------1-3/4-----------
-5-6-5-5-4-5-4-2-3-5-4-2-3-5-7/8-------3-5/6-------------------------------789-
-3-4-3-------------3-2-----------3-5/6-------1-3/4-------3-5/6-------1-3/4-----
 pm. .             . .

----------------------------------------------------
----------------------------------------------------
----------------------------------------------------
----------------------------------------------------
-----------------------------------------------7-6--
-888-777-666-88-77-10-10-9-8-888-777-666-88-77-5-4--X2
 trem......................................... pm.

------------------------------------------------------------------
------------------------------------------------------------------
------------------------------------------------------------------
------------------------------------------------------------------
-334-----112-----334-----112-----667-----445-----667-----445------
-----334-----112-----334-----112-----667-----445-----667-----445--

--------------------------------------------------------------------
--------------------------------------------------------------------
--------------------------------------------------------------------
-----------------------------------------------------------------9--
-334-----112-----334-----112-----334-----112-----334-----112-----7--
-----334-----112-----334-----112-----334-----112-----334-----1-1----

THE END

any corrections mail them to: septic_flesh241@hotmail.com

  Visit MetalTabs.com for more metal tablature

bottom separator

Contact Us | Privacy Policy | Disclaimer | Legal Notice
Copyright © 2001-2014 MetalTabs.com. All Rights Reserved.