top separator

Home

Forum

What's New

Submit a Tab

FAQ

Links

Contact Us

Link to Us

MetalTabs.com logo

Bands

0-9

A

B

C

D

E

F

G

H

I

J

K

L

M

N

O

P

Q

R

S

T

U

V

W

X

Y

Z

Search

What

Where
 

Watchtower - "The Fall Of Reason" Bass Tab

Plain Text Version
More Watchtower Tabs

Hits: 2809
Rated: 5.00 out of 5 (2 votes)
Updated: 2006-06-21 09:59:36

 

By:

epitaph

sendpm.gif

email.gif

Important note
This tab is available online because we obtained explicit permission from Watchtower or their label.


#----------------------------------PLEASE NOTE---------------------------------#
#This file is the author's own work and represents their interpretation of the #
#song. You may only use this file for private study, scholarship, or research. #
#Unless specified otherwise, this is NOT an official tab from the band members.#
#------------------------------------------------------------------------------#

  Visit MetalTabs.com for more metal tablature
  
Band: Watchtower
Album: Control And Resistance
Song: The Fall Of Reason

Copyright (c)  Noise Records 1989
Version 1.0 - 13th of May, 2006

Transcribed By: Lassi Nurminen
Email: Gaborik10@hotmail.com / Gaborik@welho.com

Tuning: EADG

|----------------------------------9-12-10--|
|-------------0-3-1----------11-10----------|
|---------4-3--------------0----------------|
|-1-5-3-5------------1-3-2------------------|

|----------------------------------9-12--|
|-------------0-3-1----------11-10-------|
|---------4-3--------------0-------------|
|-1-5-3-5------------1-3-2---------------|

0:11
|---------------------------------------|
|---------------------------------------|
|---------------------------------------|
|-1-1-1-1--1--1-1--1-1-1-1--1--1-1---2--|

|----------------------------------------------|
|----------------------------------------------|
|-----------------------------------------4-4--|
|-1-1-1-1--1--1-1-0-0-1-1-1-1--1--1-1-22--2-2--|

|------------------------------------------|
|------------------------------------------|
|------------------------------------------|
|-1-1-1-1--1--1-1--1-1-1-1--1--1-1---2--2--|

|------------------------------------------|
|------------------------------------------|
|------------------------------------------|
|-1-1-1--1--1-1--1-1-1-1--1--1-1---22-2-2--|


|------------------------------------------|
|---------------------------------4-0------|
|------------------------------------------|
|-1-1-1--1--1-1--1-1-1-1--1--1-1------3-2--|

|-------------------------------------|
|-------------------------------------|
|-------------------------------------|
|-1-1-1--1--1-1--1-1-1-1--1--1-1---2--|

0:56
|----------------------------------------|
|----------------------------------------|
|-00-0000---00-0000---00-0000---00-0000--|
|----------------------------------------|

|-----------------------------------------------|
|---------7-10-------------------7-10-----------|
|-00-0000-----8-11------00-0000------8-11-------|
|-----------------8-11-------------------8-11---|

|-----------------------------------------------|
|---------7-10-------------------7-10-----------|
|-00-0000------8-11------00-0000-----8-11-------|
|------------------8-11------------------8-11---|

|-----------------------------------------|
|-33-3333-3-6----------33-3333-3-6--------|
|------------3-6------------------3-6-----|
|---------------4-7------------------4-7--|

|-----------------------------------------|
|-33-3333-3-6----------33-3333-3-6--------|
|------------3-6------------------3-6-----|
|---------------4-7------------------4-7--|

|---------------6-5-------------9-12-11--|
|---------7-6-8-----------4-7-6----------|
|-5-8-7-9-----------3-6-5----------------|
|----------------------------------------|

|-----------------------------------------------|
|---------7-10-------------------7-10-----------|
|-00-0000-----8-11-------00-0000-----8-11-------|
|-----------------8-11-------------------8-11---|

|-----------------------------------------------|
|---------7-10-------------------7-10-----------|
|-00-0000-----8-11-------00-0000-----8-11-------|
|-----------------8-11-------------------8-11---|

|-----------------------------------------|
|-33-3333-3-6----------33-3333-3-6--------|
|------------3-6------------------3-6-----|
|---------------4-7------------------4-7--|

|-----------------------------------------|
|-33-3333-3-6----------33-3333-3-6--------|
|------------3-6------------------3-6-----|
|---------------4-7------------------4-7--|

|---------------6-5-------------9-12--|
|---------7-6-8-----------4-7-6-------|
|-5-8-7-9-----------3-6-5-------------|
|-------------------------------------|

1:32
|----------------------------------------------|
|-----7-7\--2-3-223-2-3-0-0--------------------|
|-0-0-------------------------1--1-1-----------|
|---------------------------3--------2--2-2-2--|

|-------------------------------------------------------|
|-----7-7-7-----7-------7-----0-0-4-55-7-8-7-5-4-4---4--|
|-0-0-------0-0---0-0-00--0-0----------------------7----|
|-------------------------------------------------------|

|---------10--14-10--10---10------------------------------|
|-------10--10----------10---0-0-0-0-0--------------------|
|-0-0-0---------------------------------------------------|
|--------------------------------------1--1-1-2--2-2-2-2--|

|----------------------------------------------|
|-----7-7\--2-3-223-2-3-0-0--------------------|
|-0-0-------------------------1--1-1-----------|
|---------------------------3--------2--2-2-2--|

|-----------------------------7H----|
|-------------------------------7H--| (H Stands for Harmonic here)
|--------------------------5--------|
|-3--3--3-3--3--6--6-6--6-----------|

|----------------------------------------------|
|-----7-7\--2-3-223-2-3-0-0--------------------|
|-0-0-------------------------1--1-1-----------|
|---------------------------3--------2--2-2-2--|

|-------------------------10-9-7-------3-20---------------|
|-----7-797-797--7-10-9-7--------0-0-0-----320------------|
|-0-0------8---8------------------------------310---------|
|------------------------------------------------322-2-2--|

|--------------------------------------------------|
|-----7-7/--2-3--223-2-3-0-0---3--3-3-4--4-4-4444--|
|-0-0------------------------0---------------------|
|--------------------------------------------------|

|--------------------------------------------------|
|------7777-7\--2-3-223-2-3-0-0--------------------|
|-0000----------------------------1--1-1-----------|
|-------------------------------3--------2--2-2-2--|

2:27
|-----------|
|-----------|
|-----------|
|-11-11-11--|

|--------------------------------------|
|--------------------------------------|
|-5-55-5-55-2-2-2-2-5-55-5-55-2-2-2-2--|
|--------------------------------------|

|--------------------------------------|
|---3----3------------3----3-----------|
|-1---11---1--------1---11---1---------|
|------------110033------------110033--|

|--------------------------------------|
|--------------------------------------|
|-5-55-5-55-2-2-2-2-5-55-5-55-2-2-2-2--|
|--------------------------------------|

|--------------------------------------|
|---3----3------------3----3-----------|
|-1---11---1--------1---11---1---------|
|------------110033------------110033--|

|--------------------------------------|
|--------------------------------------|
|-5-55-5-55-2-2-2-2-5-55-5-55-2-2-2-2--|
|--------------------------------------|

|--------------------------------------|
|---3----3------------3----3----33225--|
|-1---11---1--------1---11---1---------|
|------------110033--------------------|


|--------------------------------------|
|--------------------------------------|
|-5-55-5-55-2-2-2-2-5-55-5-55-2-2-2-2--|
|--------------------------------------|

|---------------------------(very-14----|
|--------------------------------------|
|-----------0----------------12-quietly)-|
|-1111110------------------------------|

	Solo time at 3:09

|------12------12------12------12------12-----12-----12-----12--|
|----7-------7-------7-------7-------7------7------7------7-----| Harmonics
|-12------12------12------12------12-----12-----12-----12-------|
|---------------------------------------------------------------|

|-5-7-------5-7-------5-7-------5-7--------|
|-----4-5-------4-5-------4-5-------4-5----| Harmonics
|---------5---------5---------5---------5--|
|------------------------------------------|

|------12------12------12------12------12-----12-----12-----12--|
|----7-------7-------7-------7-------7------7------7------7-----| Harmonics
|-12------12------12------12------12-----12-----12-----12-------|
|---------------------------------------------------------------|

|-5-7-------5-7-------5-7-------5-7--------|
|-----4-5-------4-5-------4-5-------4-5----| Harmonics
|---------5---------5---------5---------5--|
|------------------------------------------|

|--------------------------------------------------|
|---4-5---4-5---4-5---4-5---4-5---4-5---4-5---4-5--|
|-0-----0-----0-----0-----0-----0-----0-----0------|
|--------------------------------------------------|

|------------------------------------------|
|-5-0-4-----5-0-4-----5-0-4-----5-0-4------|
|-------4-0-------4-0-------4-0-------4-0--|
|------------------------------------------|

|------------------------------------------------|
|-4-5---4-5---4-5---4-5---4-5---4-5---4-5---4-5--|
|-----0-----0-----0-----0-----0-----0-----0------|
|------------------------------------------------|

|------------------------------------------|
|-5-0-4-----5-0-4-----5-0-4-----5-0-4------|
|-------4-0-------4-0-------4-0-------4-0--|
|------------------------------------------|

|-----------------------------------9-7--------|
|-4-5---4-5---7-5---4-5--9-7---4-5--------4-5--|
|-----0-----------0----------0----------0------|
|----------------------------------------------|

|------------------------------------------|
|-5-0-4-----5-0-4-----5-0-4-----5-0-4------|
|-------4-0-------4-0-------4-0-------4-0--|
|------------------------------------------|

|-------------------------------------------------|
|---5----4-5----5----4-5----5----4-5----5----4-5--|
|-0---00------0---00------0---00------0---00------|
|-------------------------------------------------|

|------------------------------------------|
|-5-0-4-----5-0-4-----5-0-4-----5-0-4------|
|-------4-0-------4-0-------4-0-------4-0--|
|------------------------------------------|

|-------------------------------------------------|
|---5----4-5----5----4-5----5----4-5----5----4-5--|
|-0---00------0---00------0---00------0---00------|
|-------------------------------------------------|

|-------------------------------|
|-------------------------------|
|-5-4-0------5-0-4-----5-0-4-0--|
|-------3-2--------5-0----------|

4:23
|---------------------------------------------|
|----------------------------------4-4-----4--|
|---------------------------------------------|
|-1-1-1-1--1--1-1--1-1-1-1--1--1-1-----0-2----|

|--------------------------------------------|
|---------------3-3-3------------------------|
|--------------------------------------------|
|-1-1-1--1--1-1-------1-1-1-1--1--1-1--2--2--|

|-------------------------------------------|
|----------------------------------------5--|
|--------------------------------4-----5----|
|-1-1-1--1--1-1--1-1-1-1--1--1-1---2-3------|

|---------------------------------|
|---------------------------------|
|---------------------------------|
|-1-1-1--1--1-1--1-1-1-1--1--1-1--|

|--------------------9-8-6--------------|
|--------------------------9-8-6--------|
|-----6-5-3---6-5-3--------------9-7-6--|
|-3-6-------6-------6-------------------|

4:51
|----------------------------------------|
|----------------------------------------|
|-55-5555---55-5555---55-5555---55-5555--|
|----------------------------------------|

|----------------------------------------|
|----------------------------------------|
|-55-5555---55-5555---55-5555---55-5555--|
|----------------------------------------|

|-----------------------------------------------99-99-------------|
|-----------------------------------------------------9-99--9-99--|
|-------------------7777----------7-77--77-7777-------------------|
|-0--------00--0000-------0000-00---------------------------------|

|-----------------------------------------------------------------------------|
|---------6-8----------------6-8----------------6-8----------------6-8--------|
|------------5-7----------------5-7----------------5-7----------------5-7-----|
|-0-0-0-0-------4-6--0-0-0-0-------4-6--0-0-0-0-------4-6--0-0-0-0-------4-6--|

|-----------------------------------------------------------------------------|
|---------6-8----------------6-8----------------6-8----------------6-8--------|
|------------5-7----------------5-7----------------5-7----------------5-7-----|
|-0-0-0-0-------4-6--0-0-0-0-------4-6--0-0-0-0-------4-6--0-0-0-0-------4-6--|

|----------------------------------------------------------------------|
|--------6-8--------------6-8--------------6-8--------------6-8--------|
|-777777----5-7----777777----5-7----777777----5-7----777777----5-7-----|
|--------------4-6--------------4-6--------------4-6--------------4-6--|

|-------------------------------------------------------------------|
|--------6-8--------------6-8--------------6-8--------------6-8-----|
|-777777----5-7----777777----5-7----777777----5-7----777777----5-7--|
|--------------4-6--------------4-6--------------4-6----------------|

|----------------------------------|
|----------------------------------|
|--------------------------5--5-5--|
|-3--3--3-3--3--6--6-6--6----------|

5:49
|----------------------------------------------|
|-----7-7\--2-3-223-2-3-0-0--------------------|
|-0-0-------------------------1--1-1-----------|
|---------------------------3--------2--2-2-2--|

|--------------------------------------------------------|
|-----7-7-7-----7--------7-----0-0-4-55-7-8-7-5-4-4-7-4--|
|-0-0-------0-0---0-0-00---0-0---------------------------|
|--------------------------------------------------------|

|-------------------------------------------|
|-----7-7\--2-3-223-2-3-0-0-----------------|
|-0-0-----------------------0---------------|
|------------------------------1-1--2-2-2-2-|

|--------------------------------------------------|
|------7777-7\--2-3-223-2-3-0-0--------------------|
|-0000----------------------------1--1-1-----------|
|-------------------------------3--------2--2-2-2--|

6:12
|-----------|
|-----------|
|-----------|
|-11-11-11--|

|-----7-9-7----------------7-9-10-9-7----------------|
|-0-7---------------9--0-7------------10-9-7---------|
|---------------7-9--------------------------10-8-7--|
|-----------7-9--------------------------------------|

|-10----------------------------------|
|-8-----------------------------------|
|-------8----88771010---8---88771010--|
|----------6--------------6-----------|

|--------------------------------------|
|--------------------------------------|
|-5-55-5-55-2-2-2-2-5-55-5-55-2-2-2-2--|
|--------------------------------------|

|--------------------------------------|
|---3----3------------3----3-----------|
|-1---11---1--------1---11---1---------|
|------------110033------------110033--|

|--------------------------------------|
|--------------------------------------|
|-5-55-5-55-2-2-2-2-5-55-5-55-2-2-2-2--|
|--------------------------------------|

|--------------------------------------|
|---3----3------------3----3---332255--|
|-1---11---1--------1---11---1---------|
|------------110033--------------------|

|---------------------------------------|
|-0-4-5-7-5-4---------0-----------------|
|-------------2-2-2-2-------------22-2--|
|-----------------------2-3-5-3-2-------|

|----------|
|----------|
|----------|
|-1111110--|

6:47
|----------------------------------------------|
|-----7-7\--2-3-223-2-3-0-0--------------------|
|-0-0-------------------------1--1-1-----------|
|---------------------------3--------2--2-2-2--|

|----------------------------------|
|----------------------------------|
|--------------------------5--5-5--|
|-3--3--3-3--3--6--6-6--6----------|

|----------------------------------------------|
|-----7-7\--2-3-223-2-3-0-0--------------------|
|-0-0-------------------------1--1-1-----------|
|---------------------------3--------2--2-1-1--|

|----------------------------------|
|----------------------------------|
|--------------------------5--5-5--|
|-3--3--3-3--3--6--6-6--6----------|

|--------------------------------------------------|
|-----7-7\--2-3-223-2-3-0-0------------------------|
|-0-0-------------------------1--1-1---------------|
|---------------------------3--------2--2-2-2-2-2--|

|----------------------------------|
|----------------------------------|
|--(bend)-------------------5--5-5--|
|-3--4--3-3--3--6--6-6--6----------|

|----------------------------------------------|
|-----7-7\--2-3-223-2-3-0-0--------------------|
|-0-0-------------------------1--1-1-----------|
|---------------------------3--------2--2-1-1--|

|----------------------------------|
|-5--5--5-5--5---------------------|
|---------------6--6-6--6--3--3-3--|
|----------------------------------|

|--------------------------------------------------|
|------7777-7\--2-3-223-2-3-0-0---------------0-2--|
|-0000----------------------------1--1-1-----------|
|-------------------------------3--------2--2------|

That should be it!

  Visit MetalTabs.com for more metal tablature

bottom separator

Contact Us | Privacy Policy | Disclaimer | Legal Notice
Copyright © 2001-2014 MetalTabs.com. All Rights Reserved.