top separator

Home

Forum

What's New

Submit a Tab

FAQ

Links

Contact Us

Link to Us

MuSpy.com

MetalTabs.com logo

Bands

0-9

A

B

C

D

E

F

G

H

I

J

K

L

M

N

O

P

Q

R

S

T

U

V

W

X

Y

Z

Search

What

Where
 

Sacramentum - "Black Destiny" Guitar Tab

Plain Text Version
More Sacramentum Tabs

Hits: 2051
Rated: 3.67 out of 5 (6 votes)
Updated: 2006-06-21 09:59:23

 

By:

xgrafcorex

sendpm.gif

email.gif

Important note
We did our best to reach Sacramentum and ask for their permission to publish this tab. Unfortunately they did not respond to our requests or we could not find a way to contact them. This tab is available online until Sacramentum tells us to take it down.


#----------------------------------PLEASE NOTE---------------------------------#
#This file is the author's own work and represents their interpretation of the #
#song. You may only use this file for private study, scholarship, or research. #
#Unless specified otherwise, this is NOT an official tab from the band members.#
#------------------------------------------------------------------------------#

  Visit MetalTabs.com for more metal tablature
  
band: sacramentum
song: black destiny
album: the coming chaos
copyright: century media records 1997

transcribed by: brian flanagan
email: xgrafcorex@hotmail.com

standard e?  one part in the middle (2:22) is the only lower part i heard

  . palm mute           h hammer on
  \ slide down          p pull off
  \ slide up            * dive/pick slide
(x) alternate           ~ trill?

might be a tad off..not really sure if it is.
please email me with any corrections.  thanks.

      0:09
e|---|------------------------------------------|
B|---|------------------------------------------|
G|-9-|---------1-----------1--------------------|
D|-8-|-------3---3-------3---3-------6----------|
A|-7-|-222---------222-------------8-------3-5--|
E|-0-|-000-1-------000-1-------6-9-----5-6------|
       ...         ...

  0:20
e|-------------------------------------------------------|
B|-------------------------------------------------------|
G|-------------------------------------------------------|
D|----------3----------3--------------9-10-9-7-9---------|
A|-6-3-6-66-1-6-3-6-22-1-22-2---2---2-7--8-7-5-7-6666-33-|
E|-4-1-4-44---4-1-4-00---00---1---1-0------------4444-11-|
         ..         ..   ..                      ....

  0:34
e|---------------------------------------------------|
B|----part1------------------------------------------|
G|---------------------------------------------------|
D|------5-------------5--------------44------------5-|
A|-2-22-3-2-22-6-2-22-3-3-3-33----44----5-55-5-2-4-3-|
E|-0-00---0-00-4-0-00---1-1-11-22-------3-33-3-0-2---|
     ..     ..     ..     . .. .. .. ..   ..

  0:58
e|--------------------------------------|
B|--------------------------------------|
G|--------------------------------------|
D|---5\4/5-----5---5\4/5----------------|
A|-2-3\2/3-2-2-3-2-3\2/3-2-2-3-5-4-5(2)-|
E|-0-------0-0---0-------0-0-1-4-2-4(0)-|
             .             .

     1:20
e|--------------------------------------------------------------------------|
B|-------chorus----------------------------------------last time hold trill-|
G|--------------------------------------------------------------------------|
D|---2h4---2h5---------2-------2h4---2h5------------------3~4---------------|
A|---------------5-4-5---5-4---------------5-4-2---2\---3-------2---3-------|
E|-2-----2-----2-------------2-----2-----2-------5----1-------2---2---5-4-2-|
   .     .     .             .     .     .                    .   .

 1:37
e|----------------------------|
B|-----chorus2----------------|
G|----------------------------|
D|-9-10-8-9----8-9-10-8-9-7-9-|
A|-7--8-6-7-10-6-7--8-6-7-5-7-|
E|-----------8----------------|


  1:48
e|-----------------------------------------------------|
B|-----------7---8-8-7h8p7---7-8---7---------6h7-7-/11-|
G|-------9-----------------9-----9-------8-------------|
D|-9---------------------------------------------------|
A|-7---7-------------------------------6---6-----------|
E|---0-----0---0---------------------6-----------------|
i think i'm getting mixed up with the guitars a little

 1:57
e|-------------------------8-7/8\7----7-7-----|
B|---------8-------------7---------10------12-|
G|-------8---8---5---5-8----------------------|
D|-----5-------8---7--------------------------|
A|---6----------------------------------------|
E|-6------------------------------------------|


  2:04
e|-----------------------------------------------8-7-|
B|-------------------/10/12-12\10-10\8-8\7-7-8-7-----|
G|-----------------9---------------------------------|
D|---------------------------------------------------|
A|-7-8-7h8p7-----6-----------------------------------|
E|-----------8-7-------------------------------------|


  2:14
e|---------------------------------------------------------|
B|-------7-8--------------7-10-----------------------------|
G|-----7-----7---5------9------9----7-9-9-10-9h10p9------8-|
D|-5-8---------8---7-10----------10-----------------10-9---|
A|---------------------------------------------------------|
E|---------------------------------------------------------|


  2:22                2:41     2:58
e|-------------------|--------|---------|
B|-------------------|--------|---------|
G|-------------------|--------|---------|
D|-------------------|-chorus-|-chorus2-|
A|-2------------2----|--------|---------|
E|-0----e flat?-0-eb-|--------|---------|
   .... ........

  3:07
e|--------------------------------------------------------|
B|--------------------------------------------------------|
G|--------------------------------------------2-----------|
D|-2-------5----4-0h2-2---5---4-0h2-2---5-4-5---5-4-2---2-|
A|----------------------3---3---------0---------------5---|
E|---00000---00-------------------------------------------|
     .....   ..

  3:32    3:55                4:07                             4:20
e|-------|-------------------|--------------------------------|---------|
B|-------|-------------------|--------------------------------|---------|
G|-------|-------------------|--------------------------------|---------|
D|-part1-|-----2-----3---2-3-|------3--------------3----------|-chorus2-|
A|-------|-2-2---2-2---2---3-|-2-22---2-22----2-22---2-3----2-|---------|
E|-------|-0-----0-----0---1-|-0-00-----00----0-00-----1----0-|---------|
                                 ..     .....   ..     ....

  Visit MetalTabs.com for more metal tablature

bottom separator

Contact Us | Privacy Policy | Disclaimer | Legal Notice
Copyright © 2001-2014 MetalTabs.com. All Rights Reserved.