top separator

Home

Forum

What's New

Submit a Tab

FAQ

Links

Contact Us

Link to Us

MetalTabs.com logo

Bands

0-9

A

B

C

D

E

F

G

H

I

J

K

L

M

N

O

P

Q

R

S

T

U

V

W

X

Y

Z

Search

What

Where
 

Fuck... I'm Dead - "Spray Me With Fecal Matter" Guitar Tab

Plain Text Version
More Fuck... I'm Dead Tabs

Hits: 2318
Rated: 5.00 out of 5 (1 vote)
Updated: 2008-10-07 05:35:37

 

By:

Licky Webster

sendpm.gif

email.gif

Important note
This tab is available online because we obtained explicit permission from Fuck... I'm Dead or their label.


#----------------------------------PLEASE NOTE---------------------------------#
#This file is the author's own work and represents their interpretation of the #
#song. You may only use this file for private study, scholarship, or research. #
#Unless specified otherwise, this is NOT an official tab from the band members.#
#------------------------------------------------------------------------------#

  Visit MetalTabs.com for more metal tablature
  
Fuck... I'm Dead
Bring On The Dead
Spray Me With Fecal Matter

Copyright (c) Razorback Records, 2001
Version 1.3 - 23.12.2006

Transcribed By: Yaniv D.
Email:          lickywebster@yahoo.com


.  - palm mute           /  - slide up to
\  - slide down to       ~  - vibrato
h  - hammer on           b  - Bend
p  - pull off            Suffixes for bend
t  - tap                 f  - full bend    h - half bend
ph - pinched harmonic    q  - quarter bend t - tap bend
*  - see comment         ^  - Hold bend    r release bend
x  - Stuccatto           ~  - vibrato bend
,  - slight palm mute    () - ghost note, sustained note
"  - tremolo note        <> - Trill
sh - semi harmonic

Tuning is C# with Drop B

R = Right channel
L = Left channel

Intro
|--------------------|
|--------------------|
|--------------------|
|--------------------|
|-6--5-3----0-2-4-4--|
|-6--5-3----0-2-4-4--|

Part A x2
|L
|--------------------------------------------------------------------------|
|-------"--"---------------------------------------------------------------|
|----"--7--6--"------"--"-----"-----------"--------------"-----------------|
|-"--5--------7--4-0-5--2--"--5--"--"--"--4--"--"--------5--"--"--5-----2ph|
|-2------------------------3-----3--2--2-----5--4--"--"-----3--2-----2-----|
|--------------------------------------------------7--4--------------2-----|
|                                                                    .
|R
|--------------------------------------------------------------------------|
|-------"--"---------------------------------------------------------------|
|----"--7--6--"------"--"-----"-----------"--------------"-----------------|
|-"--5--------7--4-0-5--2--"--5--"--"--"--4--"--"--------5--"--"--5-----2--|
|-2------------------------3-----3--2--2-----5--4--"--"-----3--2-----2--2--|
|--------------------------------------------------7--4--------------2-----|
                                                                     .


Part B x1
|L
|-------------------------------------------------------------------|
|-------------------------------------------------------------------|
|---------------------------------------------------------6-7-5-6---|
|-2-------3sh-----2-------3sh-----2-------3sh-----2-------5-6-4-5---|
|-2-------2-------2-------2-------2-------2-------2-------6-7-5-6---|
|-------------------------------------------------------------------|
|                                                         . . .
|R
|-------------------------------------------------------------------|
|-------------------------------------------------------------------|
|---------------------------------------------------------6-7-5-6---|
|---------------------------------------------------------5-6-4-5---|
|-----4-3-6-7-5-6-----4-3-6-7-5-6-----4-3-6-7-5-6-----4-3-6-7-5-6---|
|-2-6-------------2-6-------------2-6-------------2-6---------------|
  . . . . . . . . . . . . . . . . . . . . . . . . . . . . . . .

Part C x1
|-------------------------------------------------------------------|
|-------------------------------------------------------------------|
|---------------6---------------6---------------6---------------6---|
|---------5-6-4-5---------5-6-4-5---------5-6-4-5---------5-6-4-5---|
|-----4-3-6-7-5-6-----4-3-6-7-5-6-----4-3-6-7-5-6-----4-3-6-7-5-6---|
|-2-6---ph--------2-6---ph--------2-6---ph--------2-6---ph----------|
  . . .   . . .   . . .   . . .   . . .   . . .   . . .   . . .

Part D x1
|-----------------------------------------------------------------|
|-----------------------------------------------------------------|
|-------------6---------------6---------------6---------------6---|
|-------5-6-4-5---------5-6-4-5---------5-6-4-5---------5-6-4-5---|
|---4-3-6-7-5-6-----4-3-6-7-5-6-----4-3-6-7-5-6-----4-3-6-7-5-6---|
|-6---------------6---------------6---------------6---------------|
  . . . . . .     . . . . . .     . . . . . .     . . . . . .

Part E x1
|------------------------------------------|
|------------------------------------------|
|---------sh-sh-sh-sh---------sh-sh-sh-sh--|
|------------3-----3-------------3--2------|
|-2-2-2-2-2-----2-----2-2-2-2-2--------3---|
|-2-2-2-2-------------2-2-2-2--------------|
  . . . .             . . . .

Finally play Part A x2

And you're done.

  Visit MetalTabs.com for more metal tablature

bottom separator

Contact Us | Privacy Policy | Disclaimer | Legal Notice
Copyright © 2001-2014 MetalTabs.com. All Rights Reserved.