top separator

Home

Forum

What's New

Submit a Tab

FAQ

Links

Contact Us

Link to Us

MetalTabs.com logo

Bands

0-9

A

B

C

D

E

F

G

H

I

J

K

L

M

N

O

P

Q

R

S

T

U

V

W

X

Y

Z

Search

What

Where
 

Yattering - "Non Adapted Socially" Guitar Tab

Plain Text Version
More Yattering Tabs

Hits: 1926
Rated: 5.00 out of 5 (1 vote)
Updated: 2006-06-21 09:53:38

 

By:

Robbie Filth

sendpm.gif

email.gif

Important note
We did our best to reach Yattering and ask for their permission to publish this tab. Unfortunately they did not respond to our requests or we could not find a way to contact them. This tab is available online until Yattering tells us to take it down.


#----------------------------------PLEASE NOTE---------------------------------#
#This file is the author's own work and represents their interpretation of the #
#song. You may only use this file for private study, scholarship, or research. #
#Unless specified otherwise, this is NOT an official tab from the band members.#
#------------------------------------------------------------------------------#

  Visit MetalTabs.com for more metal tablature
  
Band: Yattering
Album: Genocide
Song: Non Adapted Socially
Record Label: Candlelight
Tuning: Bb Eb Ab Db F Bb

--------------
--------------
--------------
--------------
-6-6--6-6--7--
-4-4--4-4--5--
 pm.  . .

------------------------------------------------
------------------------------------------------
------------------------------------------------
-8-----9-----9-10--------8-----9-----9-10-------
------------------10-9--------------------10-9--
---6-6---7-7---------------6-6---7-7------------X2
   pm.   . . trem.....     pm.   . . trem.....

-----------------------------------------------------------
-----------------------------------------------------------
-----------------------------------------------------------
-----------------------------------------------------------
----------------------------------------------6-6--6-6--7--
-4-5-4-7-6-5-4-8-7-6-5-9-8-7-6-4-5-4-7-6-5-4--4-4--4-4--5--X2
 pm. . . . . . . . . . . . . . . . . . . . .  . .  . .

*Weird Effects 'n' stuff.*

0:23
------------------------------------------------
------------------------------------------------
------------------------------------------------
-8-----9-----9-10--------8-----9-----9-10-------
------------------10-9--------------------10-9--
---6-6---7-7---------------6-6---7-7------------
   pm.   . . trem.....     pm.   . . trem.....

--------------------------------------------------
--------------------------------------------------
--------------------------------------------------
-8-----9-----9-10--------8-----9-----9-10---------
------------------10-9--------------------10-9-6--
---6-6---7-7---------------6-6---7-7-----------4--
   pm.   . . trem.....     pm.   . . trem.....

------------------------------------------
------------------------------------------
-------10------------------10-------------
-----9--------------------9---------------
---8------10-9-10-11----8-----10-9-12-13--
-8---------8-7--8--9--8--------8-7-10-11--X3
 pm. . .              . . . .

--------------------------------------------------
--------------------------------------------------
-------10------------------10---------------------
-----9--------------------9-----------------------
---8------10-9-10-11----8-----10-10-10--10-10-10--
-8---------8-7--8--9--8--------8--8--8---8--8--8--
 pm. . .              . . . .

------------------------------------------------------
------------------------------------------------------
------------------------------------------------------
------------------------------------------------------
------------------------------------------------------
-3-2-3-4-0001-3-2-5-6-0001-3-2-3-4-0001-3-2-5-6-0001--

------------------------------------------------------
------------------------------------------------------
------------------------------------------------------
------------------------------------------------------
-5-4-5-6------5-4-7-8------5-4-5-6------5-4-7-8-------
-3-2-3-4-0001-3-2-5-6-0001-3-2-3-4-0001-3-2-5-6-0001--

-------------------------------------------------
-------------------------------------------------
-------------------------------------------------
-------------------------------------------------
-5-4-5-6------5-4-7-8------5-4-5-6------5-4-7-8--
-3-2-3-4-0001-3-2-5-6-0001-3-2-3-4-0001-3-2-5-6--
 pm. . .      . . . .      . . . .      . . . .

--------------------------------
--------------------------------
--------------------------------
--------------------------------
-4-3---4-3---5---4-3---4-3---5--
-----5-----5---5-----5-----5----X2
 pm. . . . . . . . . . . . . .

----------------------------------
----------------------------------
----------------------------------
-------2---------------4----------
-4-3-----4---4-3------------------
-----5-----5-----3-2-3---3-0-2-3--
 pm. .   . . . .         . . . .

--------------------------------------
--------------------------------------
--------------------------------------
-------2---------------4--------------
-4-3-----4---4-3-----------------6-6--
-----5-----5-----3-2-3---3-0-2-3-4-4--
 pm. .   . . . .         . . . .

----------------------------
----------------------------
----------------------------
----------------------------
-8-9-55555555-8-9-55555555--
-6-7----------6-7-----------
 pm. trem.... pm. trem....

--------------------------------
--------------------------------
--------------------------------
--------------------------------
-6/7-8p7p5-------6/7-8p7p5-9\8--
-4/5-------8p7p5-4/5------------X2

-----------------------------------------------------------
-----------------------------------------------------------
-----------------------------------------------------------
--------------------------------8--------------------------
-6----9--7----------6----9-10-7-6--6--------------6-6-6-6--
-4----7--5-44444444-4----7--8-5----4----44444444--4-4-4-4--
        pm ........                     ........  . . . .

--------------------------------------------------
--------------------------------------------------
--------------------------------------------------
--------------------------------------------------
-0-7-6-7-8-9-10-11-0-7-6-7-8-9-10-11-6-6--6-6--7--
-------------------------------------4-4--4-4--5--
 trem............................... pm.  . .  .

------------------------------------------------
------------------------------------------------
------------------------------------------------
-8-----9-----9-10--------8-----9-----9-10-------
------------------10-9--------------------10-9--
---6-6---7-7---------------6-6---7-7------------X2
   pm.   . . trem.....     pm.   . . trem.....

----------------------------------
----------------------------------
----------------------------------
----------------------------------
----------------------------------
-4-5-4-5-7-6-5-4-5-4-4-5-4-5-6-7--
 pm. . . . . . . . . . . . . . .

-----------------------------------------------------------
-----------------------------------------------------------
-----------------------------------------------------------
-----------------------------------------------------------
----------------------------------------------6-6--6-6--7--
-4-5-4-7-6-5-4-8-7-6-5-9-8-7-6-4-5-4-7-6-5-4--4-4--4-4--5--X2
 pm. . . . . . . . . . . . . . . . . . . . .  . .  . .

*Weird Effects 'n' stuff.*

2:06
------------------------------------------------
------------------------------------------------
------------------------------------------------
-8-----9-----9-10--------8-----9-----9-10-------
------------------10-9--------------------10-9--
---6-6---7-7---------------6-6---7-7------------
   pm.   . . trem.....     pm.   . . trem.....

--------------------------------------------------
--------------------------------------------------
--------------------------------------------------
-8-----9-----9-10--------8-----9-----9-10---------
------------------10-9--------------------10-9-6--
---6-6---7-7---------------6-6---7-7-----------4--
   pm.   . . trem.....     pm.   . . trem.....

------------------------------------------
------------------------------------------
-------10------------------10-------------
-----9--------------------9---------------
---8------10-9-10-11----8-----10-9-12-13--
-8---------8-7--8--9--8--------8-7-10-11--X3
 pm. . .              . . . .

--------------------------------------------------
--------------------------------------------------
-------10------------------10---------------------
-----9--------------------9-----------------------
---8------10-9-10-11----8-----10-10-10--10-10-10--
-8---------8-7--8--9--8--------8--8--8---8--8--8--
 pm. . .              . . . .

------------------------------------------------------
------------------------------------------------------
------------------------------------------------------
------------------------------------------------------
------------------------------------------------------
-3-2-3-4-0001-3-2-5-6-0001-3-2-3-4-0001-3-2-5-6-0001--

--------------------------------------------------------
--------------------------------------------------------
--------------------------------------------------------
--------------------------------------------------------
-5-4-5-6------5-4-7-8------5-4-5-6------5-4-7-8------5--
-3-2-3-4-0001-3-2-5-6-0001-3-2-3-4-0001-3-2-5-6-0001-3--
                                                     pm
*Pause*

------------------------------------------------------------
------------------------------------------------------------
------------------------------------------------------------
------------------------------------------------------------
-5-4-5-6------5-4-7-8------5-4-5-6------5-4-5-4-7-8------5--
-3-2-3-4-0001-3-2-5-6-0001-3-2-3-4-0001-3-2-3-2-5-6-0001-3--
                                            pm. . .      .

THE END

any corrections mail em to: septic_flesh241@hotmail.com

  Visit MetalTabs.com for more metal tablature

bottom separator

Contact Us | Privacy Policy | Disclaimer | Legal Notice
Copyright © 2001-2014 MetalTabs.com. All Rights Reserved.