top separator

Home

Forum

What's New

Submit a Tab

FAQ

Links

Contact Us

Link to Us

MuSpy.com

MetalTabs.com logo

Bands

0-9

A

B

C

D

E

F

G

H

I

J

K

L

M

N

O

P

Q

R

S

T

U

V

W

X

Y

Z

Search

What

Where
 

XXX Maniak - "The Father was a Fondler" Guitar Tab

Plain Text Version
More XXX Maniak Tabs

Hits: 2294
Updated: 2006-06-21 09:36:15

 

By:

Robbie Filth

sendpm.gif

email.gif

Important note
This tab is available online because we obtained explicit permission from XXX Maniak or their label.


#----------------------------------PLEASE NOTE---------------------------------#
#This file is the author's own work and represents their interpretation of the #
#song. You may only use this file for private study, scholarship, or research. #
#Unless specified otherwise, this is NOT an official tab from the band members.#
#------------------------------------------------------------------------------#

  Visit MetalTabs.com for more metal tablature
  
Band: XXX Maniak
Album: Split with Lymphatic Phlegm
Song: The Father was a Fondler
Record Label: Black Hole Productions
Tuning: Bb Eb Ab Db F Bb

------------------------------
------------------------------
------------------------------
-----1---0-----------1--------
-------------3-----------5----
-0-2---2---2---4-1-2---2---3--X4
 pm. . . . .     . . . .   bend

---------------------------------------------------------------
---------------------------------------------------------------
---------------------------------------------------------------
-----1---0-----------1--------------1---0-----------1----------
-------------3-----------5------------------3-----------5---5--
-0-2---2---2---4-0-2---2---3----0-2---2---2---4-0-2---2---3----
 trem...................  bend  trem...................   b trem

---------------------------------------------------------------
---------------------------------------------------------------
---------------------------------------------------------------
-----1---0-----------1--------------1---0-----------1----------
-------------3-----------5------------------3-----------5---5--
-0-2---2---2---4-0-2---2---3----0-2---2---2---4-0-2---2---3----
 trem...................  bend  trem...................   b trem

----------------------------------------
----------------------------------------
----------------------------------------
-----8888--------------8888-------------
-2-3-6666-2-3-6666-2-3-6666-444-666-33--
-0-1------0-1-4444-0-1------222-444-11--
 pm.      . .      . .      ... ... ..

----------------------------------------
----------------------------------------
----------------------------------------
-----8888--------------8888-------------
-2-3-6666-2-3-6666-2-3-6666-444-666-33--
-0-1------0-1-4444-0-1------222-444-11--
 pm.      . .      . .

------------------------------------------
------------------------------------------
------------------------------------------
-------v------------------v---------------
-2-3---6--2-3---v---2-3---6---444-666-33--
-0-1------0-1---4---0-1-------222-444-11--
v = vibrato

------------------------------------------
------------------------------------------
------------------------------------------
-------v------------------v---------------
-2-3---6--2-3---v---2-3---6---444-666-33--
-0-1------0-1---4---0-1-------222-444-11--
v = vibrato

----------------------------------------
----------------------------------------
----------------------------------------
-----8888--------------8888-------------
-2-3-6666-2-3-6666-2-3-6666-444-666-33--
-0-1------0-1-4444-0-1------222-444-11--
 pm.      . .      . .      ... ... ..

------------------------------------------
------------------------------------------
------------------------------------------
-----8888--------------8888---------------
-2-3-6666-2-3-6666-2-3-6666-444-666-33-2--
-0-1------0-1-4444-0-1------222-444-11-0--
 pm.      . .      . .      ... ... .. .

any questions mail them to: Septic_Flesh241@hotmail.com

  Visit MetalTabs.com for more metal tablature

bottom separator

Contact Us | Privacy Policy | Disclaimer | Legal Notice
Copyright © 2001-2014 MetalTabs.com. All Rights Reserved.