top separator

Home

Forum

What's New

Submit a Tab

FAQ

Links

Contact Us

Link to Us

MetalTabs.com logo

Bands

0-9

A

B

C

D

E

F

G

H

I

J

K

L

M

N

O

P

Q

R

S

T

U

V

W

X

Y

Z

Search

What

Where
 

High on Fire - "Speedwolf" Guitar Tab

Plain Text Version
More High on Fire Tabs

Hits: 6658
Updated: 2006-06-21 09:35:35

 

By:

sendpm.gif

email.gif

Important note
This tab is available online because we obtained explicit permission from High on Fire or their label.


#----------------------------------PLEASE NOTE---------------------------------#
#This file is the author's own work and represents their interpretation of the #
#song. You may only use this file for private study, scholarship, or research. #
#Unless specified otherwise, this is NOT an official tab from the band members.#
#------------------------------------------------------------------------------#

  Visit MetalTabs.com for more metal tablature
  
Band:  High On Fire
Album: Surrounded by Thieves
Song:  Speedwolf

Copyright (c)  Relapse 2002
Version 1.0 - 5/03/06

Transcribed By: Andy K (master of Fists)
Email:          andykartanos@hotmail.com


.  - palm mute           /  - slide up to
\  - slide down to       ~  - vibrato
h  - hammer on           b  - Bend
p  - pull off            Suffixes for bend
t  - tap                 f  - full bend    h - half bend
ph - pinched harmonic    q  - quarter bend t - tap bend
*  - see comment         ^  - Hold bend    r release bend
x  - Stuccatto           ~  - vibrato bend
,  - slight palm mute    () - ghost note, sustained note
"  - tremolo note        <> - Trill

This Song took me a while to figure out, so don't plagiarize, jerk.
I'm not 100% sure on some parts, but for the most part it sounds
wicked.

Tuning C F A# D# G C

intro
|-------------------------------------------------------------------|
|-------------------------------------------------------------------|
|-----------0-----------------------2-------------------------------|
|---0---2-------2---0-------0---2-------2---2---2-------------------|
|-0---0---0---0---0---0-3-0---0---0---0---0---0---0-3---------------|3x
|-------------------------------------------------------------------|

|-------------------------------------------------------------------|
|-------------------------------------------------------------------|
|-------------------------------------------------------------------|
|-------------------------------------------------------------------|
|-2-4--8-5--12-8--12-11-1111--and end with this---2-----------------|
|-0-2--6-3--10-6--10--9--9-9-------3rd time-------0-----------------|
                         . .
|-------------------------------------------------------------------|
|-------------------------------------------------------------------|
|-------------------------------------------------------------------|
|-------------------------------------------------------------------|
|-(2)-555-444-888-555---12\8-121212-888-121212-111111--8888---------|part1
|-(0)-333-222-666-333---10\6-101010-666-101010--9-9-9--6666---------|

|-------------------------------------------------------------------|
|-------------------------------------------------------------------|
|-------------------------------------------------------------------|
|--------------------------------------------------12121212---------|part2
|-555-444-888-555---12\8-121212-888-121212-111111--10101010---------|
|-333-222-666-333---10\6-101010-666-101010--9-9-9-------------------|
repeat part 1&2 as one riff 4-5 times

|-------------------------------------------------------------------|
|-------------------------------------------------------------------|
|-------------------------------------------------------------------|
|-------------------------------------------------------------------|part 3
|-5---6---3---4---5---6--4-44-3-4-----------------------------------|
|-3---4---1---2---3---4--2-22-1-2-----------------------------------|

|-------------------------------------------------------------------|
|-------------------------------------------------------------------|part 4
|-------------------------------------------------------------------|2x
|-----------9-9-9----------9-9-9------------------------------------|
|-------5---7-7-7------5---7-7-7------------------------------------|
|---578--85--------578--85------------------------------------------|

repeat parts 1,2 again and then part 3 and end on part 4
I'm not going to tab the solo, too tired, but you can try.

  Visit MetalTabs.com for more metal tablature

bottom separator

Contact Us | Privacy Policy | Disclaimer | Legal Notice
Copyright © 2001-2014 MetalTabs.com. All Rights Reserved.