top separator

Home

Forum

What's New

Submit a Tab

FAQ

Links

Contact Us

Link to Us

MetalTabs.com logo

Bands

0-9

A

B

C

D

E

F

G

H

I

J

K

L

M

N

O

P

Q

R

S

T

U

V

W

X

Y

Z

Search

What

Where
 

Immortal - "Noctambulant" Guitar Tab

Plain Text Version
More Immortal Tabs

Hits: 3016
Rated: 4.50 out of 5 (2 votes)
Updated: 2006-08-17 03:39:36

 

By:

sendpm.gif

email.gif

Important note
We did our best to reach Immortal and ask for their permission to publish this tab. Unfortunately they did not respond to our requests or we could not find a way to contact them. This tab is available online until Immortal tells us to take it down.


#----------------------------------PLEASE NOTE---------------------------------#
#This file is the author's own work and represents their interpretation of the #
#song. You may only use this file for private study, scholarship, or research. #
#Unless specified otherwise, this is NOT an official tab from the band members.#
#------------------------------------------------------------------------------#

  Visit MetalTabs.com for more metal tablature
  
Band:  (IMMORTAL)
Album: (blizzard beasts)
Song:  (NOCTAMBULANT)

Copyright (c)  (RECORD LABEL) (1997)
Version 1.0 - (03/05/2006)

Transcribed By: (ZOILGUST)
Email:          (zoilgust@free.fr)


.  - palm mute           /  - slide up to
  - slide down to       ~  - vibrato
h  - hammer on           b  - Bend
p  - pull off            Suffixes for bend
t  - tap                 f  - full bend    h - half bend
ph - pinched harmonic    q  - quarter bend t - tap bend
*  - see comment         ^  - Hold bend    r release bend
x  - Stuccatto           ~  - vibrato bend
,  - slight palm mute    () - ghost note, sustained note
"  - tremolo note        <> - Trill

Tuning E A D G B E

|------------------------------------------------------|
|------------------------------------------------------|
|-4-4-4-4-------4-4-4-4-3-3-3-3------4-4-4-4-----------|
|-5-5-5-5--2----5-5-5-5-4-4-4-4-2----5-5-5-5-2---------|
|-7-7-7-7--2----7-7-7-7-6-6-6-6-2----7-7-7-7-2---------|
|----------0--------------------0------------0---------|
           x                    x            x
|------------------------------------------------------|
|------------------------------------------------------|
|-4-4-4-4--7--7--7--7------4-4-4-4---------------------|
|-5-5-5-5--8--8--8--8-2----5-5 5 5-2-------------------|
|-7-7-7-7-10-10-10-10-2----7-7-7-7-2-------------------|
|---------------------0------------0-------------------|
                      x            x
|------------------------------------------------------|
|------------------------------------------------------|
|-4-4-4-4-3-3-3-3--------------------------------------|
|-5 5 5 5 4 4 4 4-5 5 5 5-5-5-5-5-5-5-5-5-5-5-5--------|
|-7 7 7 7-6 6 6 6-6 6 6 6-6-6-6-6-6-6-6-6-6-6-6--------|
|-----------------8 8 8 8-8-8-8-8-8-8-8-8-8-8-8--------|

|------------------------------------------------------|
|------------------------------------------------------|
|-4-4-4-4------4-4-4-4-3-3-3-3------4-4-4-4------------|
|-5-5-5-5-2----5-5-5-5-4-4-4-4-2----5-5-5-5-2----------|
|-7-7-7-7-2----7-7-7-7-6-6-6-6-2----7-7-7-7-2----------|
|---------0--------------------0------------0----------|
          x                    x            x
|------------------------------------------------------|
|------------------------------------------------------|
|-4-4-4-4--7--7--7--7------4-4-4-4---------------------|
|-5-5-5-5--8--8--8--8-2----5-5 5 5-2-------------------|
|-7-7-7-7-10-10-10-10-2----7-7-7-7-2-------------------|
|---------------------0------------0-------------------|
                      x            x
|------------------------------------------------------|
|------------------------------------------------------|
|-4-4-4-4-3-3-3-3--------------------------------------|
|-5 5 5 5 4 4 4 4--------4-3----------4/5--------------|
|-7 7 7 7-6 6 6 6--------2-1----------2/3--------------|
|--------------------000-------(0)000------------------|

|------------------------------------------------------|
|------------------------------------------------------|
|------------------------------------------------------|
|-------4-3--------4/5-----4-3---------4/5-------------|
|-------2-1--------2/3-----2-1---------2/3-------------|
|--000-----(0)000------000------(0)000-----------------|

|------------------------------------------------------|
|------------------------------------------------------|
|------------------------------------------------------|
|------4-3--------4/5----------------------------------|
|------2-1--------2/3----------------------------------|
|--000-----(0)000--------------------------------------|

|------------------------------------------------------|
|------------------------------------------------------|
|-444------44443333-----444----------------------------|
|-555------55554444-----555----------------------------|
|-777------77776666-----777----------------------------|
|-----00000--------00000---000000----------------------|

|------------------------------------------------------|
|------------------------------------------------------|
|-4444--7--7--7--7------4444-----44443333--------------|
|-5555--8--8--8--8------5555-----55554444--------------|
|-7777-10-10-10-10------7777-----77776666--------------|
|------------------00000----00000----------------------|

|------------------------------------------------------|
|------------------------------------------------------|
|------------------------------------------------------|
|------4-3-------4/5-----4-3--------4/5----------------|
|------2-1-------2/3-----2-1--------2/3----------------|
|--000----(0)000-----000-----(0)000--------------------|

|------------------------------------------------------|
|------------------------------------------------------|
|------------------------------------------------------|
|------4-3--------4/5-----4-3--------4/5---------------|
|------2-1--------2/3-----2-1--------2/3---------------|
|--000-----(0)000-----000-----(0)000-------------------|

|------------------------------------------------------|
|------------------------------------------------------|
|------------------------------------------------------|
|------4-3--------4/5-----4-3--------4/5---------------|
|------2-1--------2/3-----2-1--------2/3---------------|
|--000-----(0)000-----000-----(0)000-------------------|

|------------------------------------------------------|
|------------------------------------------------------|
|------------------------------------------------------|
|------4-3--------4/5-----4-3-----------4/5------------|
|------2-1--------2/3-----2-1-----------2/3------------|
|--000-----(0)000-----000------(0)000------------------|

|------------------------------------------------------|
|------------------------------------------------------|
|------------------------------------------------------|
|------4-3-2--------4/5------- 4\3---------------4-3-2-|
|------2-1-2--------2/3--------2\1-----2h3p2-----2-1-2-|
|-000------0--------------000-------00------0023-----0-|
           x                                         x
|------------------------------------------------------|
|------------------------------------------------------|
|------------------------------------------------------|
|-4/5------4\3-----------------------------------------|
|-2/3------2\1----2h3p2--------5p6---6~----5p6-6~------|
|-----000------00-------003200-----0----00-------------|

|------------------------------------------------------|
|------------------------------------------------------|
|------------------------------------------------------|
|---------------------------------4-3------------------|
|---------5p6---6~----5p6-6-------2-1-2----------------|
|-0023200-----0---00---------0023-----0----------------|
                                      x
|------------------------------------------------------|
|------------------------------------------------------|
|------------------------------------------------------|
|-4/5---- 4\3---------------4-3-2----------------------|
|-2/3-----2\1----2h3p2------2-1-2----------------------|
|-----000-----00------0023------0----------------------|
                                x
|------------------------------------------------------|
|------------------------------------------------------|
|------------------------------------------------------|
|-4/5---- 4\3------------------------------------------|
|-2/3-----2\1----2h3p2-------5p6--6~-----5p6-6~--------|
|-----000-----00-------003200----0-----00--------------|

|------------------------------------------------------|
|------------------------------------------------------|
|------------------------------------------------------|
|------------------------------------------------------|
|---------5p6---6~-----5p6-6---------------------------|
|-003200------0-----00-------0032----------------------|

|------------------------------------------------------|
|------------------------------------------------------|
|-4-4-4-4-------4-4-4-4-3-3-3-3------4-4-4-4-----------|
|-5-5-5-5--2----5-5-5-5-4-4-4-4-2----5-5-5-5-2---------|
|-7-7-7-7--2----7-7-7-7-6-6-6-6-2----7-7-7-7-2---------|
|----------0--------------------0------------0---------|
           x                    x            x
|------------------------------------------------------|
|------------------------------------------------------|
|-4-4-4-4--7--7--7--7------4-4-4-4---------------------|
|-5-5-5-5--8--8--8--8-2----5-5 5 5-2-------------------|
|-7-7-7-7-10-10-10-10-2----7-7-7-7-2-------------------|
|---------------------0------------0-------------------|
                      x            x
|------------------------------------------------------|
|------------------------------------------------------|
|-4-4-4-4-3-3-3-3--------------------------------------|
|-5 5 5 5 4 4 4 4-5 5 5 5-5-5-5-5-5-5-5-5-5-5-5--------|
|-7 7 7 7-6 6 6 6-6 6 6 6-6-6-6-6-6-6-6-6-6-6-6--------|
|-----------------8 8 8 8-8-8-8-8-8-8-8-8-8-8-8--------|

|------------------------------------------------------|
|------------------------------------------------------|
|-4-4-4-4-------4-4-4-4-3-3-3-3------4-4-4-4-----------|
|-5-5-5-5--2----5-5-5-5-4-4-4-4-2----5-5-5-5-2---------|
|-7-7-7-7--2----7-7-7-7-6-6-6-6-2----7-7-7-7-2---------|
|----------0--------------------0------------0---------|
           x                    x            x
|------------------------------------------------------|
|------------------------------------------------------|
|-4-4-4-4--7--7--7--7------4-4-4-4---------------------|
|-5-5-5-5--8--8--8--8-2----5-5 5 5-2-------------------|
|-7-7-7-7-10-10-10-10-2----7-7-7-7-2-------------------|
|---------------------0------------0-------------------|
                      x            x
|------------------------------------------------------|
|------------------------------------------------------|
|-4-4-4-4-3-3-3-3--------------------------------------|
|-5 5 5 5 4 4 4 4--------------------------------------|
|-7 7 7 7-6 6 6 6--------------------------------------|
|------------------------------------------------------|

|------------------------------------------------------|
|------------------------------------------------------|
|------------------------------------------------------|
|------4-3--------4/5-----4-3--------4/5---------------|
|------2-1--------2/3-----2-1--------2/3---------------|
|--000-----(0)000-----000-----(0)000-------------------|

|------------------------------------------------------|
|------------------------------------------------------|
|------------------------------------------------------|
|------4-3--------4/5-----4-3--------4/5---------------|
|------2-1--------2/3-----2-1--------2/3---------------|
|--000-----(0)000-----000-----(0)000-------------------|

|------------------------------------------------------|
|------------------------------------------------------|
|------------------------------------------------------|
|------4-3--------4/5-----4-3--------4/5---------------|
|------2-1--------2/3-----2-1--------2/3---------------|
|--000-----(0)000-----000-----(0)000-------------------|

|------------------------------------------------------|
|------------------------------------------------------|
|------------------------------------------------------|
|------4-3--------4/5-----4-3--------4/5---------------|
|------2-1--------2/3-----2-1--------2/3---------------|
|--000-----(0)000-----000-----(0)000-------------------|

|------------------------------------------------------|
|------------------------------------------------------|
|-444-----44443333-----444-----------------------------|
|-555-----55554444-----555-----------------------------|
|-777-----7777666------777-----------------------------|
|----00000--------00000---00000------------------------|

|------------------------------------------------------|
|------------------------------------------------------|
|-4444-7-7-7-7-----4444-----44443333-------------------|
|-5555-8-8-8-8-----5555-----55554444-------------------|
|-777710101010-----7777-----77776666-------------------|
|-------------00000----00000---------------------------|

|------------------------------------------------------|
|------------------------------------------------------|
|------------------------------------------------------|
|-555555555555555--------------------------------------|
|-666666666666666--------------------------------------|
|-888888888888888--------------------------------------|

|------------------------------------------------------|
|------------------------------------------------------|
|-444-----44443333-----444-----------------------------|
|-555-----55554444-----555-----------------------------|
|-777-----77776666-----777-----------------------------|
|----00000--------00000---00000------------------------|


|------------------------------------------------------|
|------------------------------------------------------|
|-4444-7-7-7-7-----4444-----44443333-------------------|
|-5555-8-8-8-8-----5555-----55554444-------------------|
|-777710101010-----7777-----77776666-------------------|
|-------------00000----00000---------------------------|

|------------------------------------------------------|
|------------------------------------------------------|
|------------------------------------------------------|
|-555555555555555--------------------------------------|
|-666666666666666--------------------------------------|
|-888888888888888--------------------------------------|

|------------------------------------------------------|
|------------------------------------------------------|
|------------------------------------------------------|
|------------------------------------------------------|
|-6p7-2-2-2-7p6-6-6-2-2-6p7-2-2-2-7h8-8-8--------------|
|-----0-0-0---------0-0-----0-0-0----------------------|
      x x x         x x     x x x

|------------------------------------------------------|
|------------------------------------------------------|
|------------------------------------------------------|
|------------------------------------------------------|
|-10-10/11~-6h7-2-2-2-7p6-6-6-2-2-6h7-2-2-2------------|
|---------------0-0-0---------0-0-----0-0-0------------|
                x x x         x x     x x x
|------------------------------------------------------|
|------------------------------------------------------|
|------------------------------------------------------|
|------------------------------------------------------|
|-7-8-8-8-10-10-/11-10-10-/11-6p7-------7-6-6-6--------|
|---------------------------------000000---------------|

|------------------------------------------------------|
|------------------------------------------------------|
|------------------------------------------------------|
|------------------------------------------------------|
|-------6p7--------7-8-8-8-10-10-/11----6p7------------|
|-00000----000000--------------------------------------|

|------------------------------------------------------|
|------------------------------------------------------|
|------------------------------------------------------|
|------------------------------------------------------|
|------7p6-6-6--------6p7------------------------------|
|-00000--------000000------000000----------------------|

|------------------------------------------------------|
|------------------------------------------------------|
|------------------------------------------------------|
|------------------------------------------------------|
|-7-8-8-8-10-10/11-11-11-10/11-11-11-------------------|
|------------------------------------------------------|

|------------------------------------------------------|
|------------------------------------------------------|
|------------------------------------------------------|
|--4-3-2----4/5---- 4\3---------------4-3-2------------|
|--2-1-2----2/3-----2\1-----2h3p2-----2-1-2------------|
|------0--------000-----00-------0023-----0------------|
       x
|------------------------------------------------------|
|------------------------------------------------------|
|------------------------------------------------------|
|-4/5---- 4\3------------------------------------------|
|-2/3-----2\1---2h3p2--------5p6---6~----5p6-6~--------|
|-----000-----00-----002300-----0-----00---------------|

|------------------------------------------------------|
|------------------------------------------------------|
|------------------------------------------------------|
|-------------------------------4-3--------------------|
|-------5p6---6~----5p6-6-------2-1-2------------------|
|-002300----0-----00-------0023-----0------------------|
                                    x
|------------------------------------------------------|
|------------------------------------------------------|
|------------------------------------------------------|
--4/5-----4\3----------------4-3-2---------------------|
|-2/3-----2\1-----2h3p2------2-1-2---------------------|
|-----000-----00--------0023-----0---------------------|
                                 x
|------------------------------------------------------|
|------------------------------------------------------|
|------------------------------------------------------|
|-4/5---- 4\3------------------------------------------|
|-2/3-----2\1----2h3p2------5p6---6~----5p6-6~---------|
|-----000-----00------002300----0-----00---------------|

|------------------------------------------------------|
|------------------------------------------------------|
|------------------------------------------------------|
|------------------------------------------------------|
|--------5p6---6~----5p6-6------2-2--------------------|
|-002300----0-----00---------0--0-0--------------------|

END

  Visit MetalTabs.com for more metal tablature

bottom separator

Contact Us | Privacy Policy | Disclaimer | Legal Notice
Copyright © 2001-2014 MetalTabs.com. All Rights Reserved.