top separator

Home

Forum

What's New

Submit a Tab

FAQ

Links

Contact Us

Link to Us

MetalTabs.com logo

Bands

0-9

A

B

C

D

E

F

G

H

I

J

K

L

M

N

O

P

Q

R

S

T

U

V

W

X

Y

Z

Search

What

Where
 

Severed Savior - "Bloody Prolapse" Guitar Tab

Plain Text Version
More Severed Savior Tabs

Hits: 2447
Updated: 2006-06-21 09:32:24

 

By:

Yura

sendpm.gif

email.gif

Important note
This tab is available online because we obtained explicit permission from Severed Savior or their label.


#----------------------------------PLEASE NOTE---------------------------------#
#This file is the author's own work and represents their interpretation of the #
#song. You may only use this file for private study, scholarship, or research. #
#Unless specified otherwise, this is NOT an official tab from the band members.#
#------------------------------------------------------------------------------#

  Visit MetalTabs.com for more metal tablature
  
Song : BLOODY PROLAPSE
Band : SEVERED SAVIOR
ALBUM : Brutality Is Law
Copyright Unique Leader Records 2003

Version 2.0 (May'06)
Transcribed by : Yura Kowalchuk
       contact : yura_kowalchuk@mail.ru
URL: [www.blood-scrapes.nm.ru]

::TABULATURE LEGEND::
 " - tremolo             h - hammer on
 ~ - vibrato             \ - slide down
 p - pull off            / - slide down
 tr - trill              ^ - pinch harmonics
 = - sustained note      b - bend string
 p.m. - palm muting      t - tapping

TUNING: C# [C#,F#,B,e,g#,c#]

[Riff 1]
|------------------------------[x3]-|-----------------------------|
|-----------------------------------|-----------------------------|
|--------------------------10-9-7-9-|-----------------------------|
|---------8-7-5-7-10-9-7-9----------|---------8-7-5-7-------------|
|-6-5-3-5---------------------------|-6-5-3-5---------5--4--3--4--|
|-----------------------------------|-----------------3--2--1--2--|
  . . . . . . . . .  . . . .  . . .   . . . . . . . . .  .  .  .

[Riff 2a]
|---------------------------------|-----------------------------------|
|---------------------------------|-----------------------------------|
|---------------------------------|--------------------------10-9-7-9-|
|---------8-7-5-7-----------------|---------8-7-5-7-9-7-9-10----------|
|-6-5-3-5---------6-5-3-5---------|-6-5-3-5---------------------------|
|-------------------------6-5-3-5-|-----------------------------------|
  . . . . . . . . . . . . . . . .   . . . . . . . . . . . .  .  . . .

[Riff 2b]
|---------------------------------|-----------------------------|
|---------------------------------|-----------------------------|
|---------------------------------|-----------------------------|
|---------8-7-5-7-----------------|---------8-7-5-7-------------|
|-6-5-3-5---------6-5-3-5---------|-6-5-3-5---------5--4--3--4--|
|-------------------------6-5-3-5-|-----------------3--2--1--2--|
  . . . . . . . . . . . . . . . .   . . . . . . . . .  .  .  .

[Riff 3a (x2)]
|-------------------------------------------------------|
|-------------------------------------------------------|
|-------------------------------------------------------|
|-------------------------------------------------------|
|-3"-------------5"-------3---------------3-------5--4--|
|----4"-3"-4"-6"----6"-5"---4-3-4-6-4-3-4---4-3-4-3--2--|
                          . . . . . . . . . . . . .  .

[Riff 3b]
|-------------------------------------------------------|
|-------------------------------------------------------|
|-------------------------------------------------------|
|-------------------------------------------------------|/Gtr. 1/
|-3"-------------5"-------3---------------3-------5--4--|
|----4"-3"-4"-6"----6"-5"---4-3-4-6-4-3-4---4-3-4-3--2--|
|                         . . . . . . . . . . . . .  .  |
|-------------------------------------------------------|
|-------------------------------------------------------|
|-------------------------------------------------------|
|-------------------------------------------------------|/Gtr. 2/
|-3"-------------5"-------6-------9-------6-------5--4--|
|----4"-3"-4"-6"----6"-5"---7-6-7---7-6-7---7-6-7-3--2--|
                          . . . . . . . . . . . . .  .

[Riff 3c]
|-------------------------------------------------|
|-------------------------------------------------|
|-------------------------------------------------|
|-------------------------3-----------------------|
|-3"-------------5"-------3--4--3--4--6--5--4--3--|
|----4"-3"-4"-6"----6"-5"----4--3--4--6--5--4--3--|
                          .  .  .  .  .  .  .  .

[RIFF 1] [RIFF 2a (x3)] [RIFF 2b]

[Riff 4]
|------------------------------------|
|------------------------------------|
|------------------------------------|
|------------------------------------|
|-------5"----8"----------5--4--3--4-|
|-5"-6"----6"----6"-5"-6"-3--2--1--2-|
                          .  .  .  .

[RIFF 3c] [RIFF 4] [RIFF 3c]

[Riff 5a]
|----------------------------------------------------|
|----------------------------------------------------|
|----------------------------------------------------|
|------------------------------3-----------8===-7===-|
|-3"---------------------------3--4--3--4--6===-5===-|
|----4"-3"-4"-6"-5"-4"-3"-[x3]----4--3--4--6===-5===-|
                               .  .  .  .

[Riff 5b (x2)]
|----------------------------------------------------|
|----------------------------------------------------|
|----------------------------------------------------|
|-3----------------------------3-----------8===-7===-|
|-3--4--3--4--6--5--4--3-------3--4--3--4--6===-5===-|
|----4--3--4--6--5--4--3--[x3]----4--3--4--6===-5===-|
  .  .  .  .  .  .  .  .       .  .  .  .

[Outro (x2)]
|----------------------------------------|
|----------------------------------------|
|----------------------------------------|
|---10------------------------10---------|/Gtr. 1/
|-9----12-9-10-------11----------11-9----|
|--------------10-10----10-10---------10-|
| . .  .  . .  .  .  .  .  .  .  .  . .  |
|----------------------------------------|
|----------------------------------------|
|----------------------------------------|
|----------------------------------------|/Gtr. 2/
|-2--------------------------------------|
|-0--------------------------------------|
  .

[Riff 6a (x2)]
|----------------------------------------|
|----------------------------------------|
|----------------------------------------|
|---10------------------------10---------|
|-9----12-9-10-------11----------11-9----|
|--------------10-10----10-10---------10-|
  . .  .  . .  .  .  .  .  .  .  .  . .

[Riff 6b (x2)]
|----------------------------------------|
|----------------------------------------|
|----------------------------------------|
|---10------------------------10---------|/Gtr. 1/
|-9----12-9-10-------11----------11-9----|
|--------------10-10----10-10---------10-|
| . .  .  . .  .  .  .  .  .  .  .  . .  |
|----------------------------------------|
|----------------------------------------|
|---9-------------------------9----------|
|-8----11-8-9--------10----------10-8----|/Gtr. 2/
|--------------9--9-----9--9----------9--|
|----------------------------------------|
  . .  .  . .  .  .  .  .  .  .  .  . .


[Riff 7 (x2)]
|-------------------------|-------------------------|-
|-------------------------|-------------------------|-
|-------------4"----------|---------4---------------|-
|-5"-2"----------5"-3"----|-5-2-------5-3-----7-----|-
|-------3"-------------4"-|-----3---------4-5---8-5-|-
|----------2"-------------|-------2-----------------|-
                            . . . . . . . . . . . .

-|-------------------------|---------------------------------|
-|-------------------------|-------------------------9-6-----|
-|-------------4"----------|---------4-----------------------|
-|-5"-2"----------5"-3"----|-5-2-------5-3-----7---------9-6-|
-|-------3"-------------4"-|-----3---------4-5---8-5---------|
-|----------2"-------------|-------2-------------------------|
                             . . . . . . . . . . . .

[Outro 2]
|-------------|
|-------------|
|-------------|
|-------------|
|-5--4--3--4--|
|-3--2--1--2--|
  .  .  .  .

[Riff 8 (x4)]
|---------------------------------|---------------------------------|
|---------------------------------|---------------------------------|
|---------4-----------------------|---------4-----------------------|
|-5-2-------5-3-----7-------------|-5-2-------5-3-----7-------------|
|-----3---------4-5---8-5-3-3-3-3-|-----3---------4-5---8-5-2======-|
|-------2-----------------1-1-1-1-|-------2-----------------0======-|
  . . . . . . . . . . . . . . . .   . . . . . . . . . . . .

[RIFF 6a (x4)] [RIFF 8 (x4)] [RIFF 1] [RIFF 2a]

[Outro 3]
|---------------------------------|-----------------------------------------|
|---------------------------------|-----------------------------------------|
|---------------------------------|-----------------------------------------|
|---------8-7-5-7-----------------|---------8-7-5-7-3-----------------------|
|-6-5-3-5---------6-5-3-5---------|-6-5-3-5---------3--4--3--4--6--5--4--3--|
|-------------------------6-5-3-5-|--------------------4--3--4--6--5--4--3--|
  . . . . . . . . . . . . . . . .   . . . . . . . . .  .  .  .  .  .  .  .

[RIFF 5a] [RIFF 5b]

[Ending]
|--------------------[x4]-|
|-------------------------|
|-------------------------|
|-3-----------------------|
|-3--4--3--4--6--5--4--3--|
|----4--3--4--6--5--4--3--|
  .  .  .  .  .  .  .  .

END OF SONG

  Visit MetalTabs.com for more metal tablature

bottom separator

Contact Us | Privacy Policy | Disclaimer | Legal Notice
Copyright © 2001-2014 MetalTabs.com. All Rights Reserved.