top separator

Home

Forum

What's New

Submit a Tab

FAQ

Links

Contact Us

Link to Us

MetalTabs.com logo

Bands

0-9

A

B

C

D

E

F

G

H

I

J

K

L

M

N

O

P

Q

R

S

T

U

V

W

X

Y

Z

Search

What

Where
 

Severed Savior - "Buried Again" Guitar Tab

Plain Text Version
More Severed Savior Tabs

Hits: 3169
Rated: 5.00 out of 5 (1 vote)
Updated: 2006-06-21 09:30:41

 

By:

Yura

sendpm.gif

email.gif

Important note
This tab is available online because we obtained explicit permission from Severed Savior or their label.


#----------------------------------PLEASE NOTE---------------------------------#
#This file is the author's own work and represents their interpretation of the #
#song. You may only use this file for private study, scholarship, or research. #
#Unless specified otherwise, this is NOT an official tab from the band members.#
#------------------------------------------------------------------------------#

  Visit MetalTabs.com for more metal tablature
  
Song : BURIED AGAIN
Band : SEVERED SAVIOR
ALBUM : Brutality Is Law
Copyright Unique Leader Records 2003

Version 2.0 (May'06)
Transcribed by : Yura Kowalchuk
       contact : yura_kowalchuk@mail.ru
URL: [www.blood-scrapes.nm.ru]

::TABULATURE LEGEND::
 " - tremolo             h - hammer on
 ~ - vibrato             \ - slide down
 p - pull off            / - slide down
 tr - trill              ^ - pinch harmonics
 = - sustained note      b - bend string
 p.m. - palm muting      t - tapping

TUNING: C# [C#,F#,B,e,g#,c#]

[Intro]
|-------------------------|----------------------------------------|
|-------------------------|----------------------------------------|
|-------------------------|----------------------------------------|
|-------------7"-6"-------|----------------------------------------|/Gtr. 1/
|-8"-7"-------------5"-4"-|---------7--5--------6--4---------------|
|-------6"-5"-------------|-5-6-5-3-5--3--2"...-4--2-1"...-5-6-5-3-|
|                         | . . . . .  .        .  .       . . . . |
|-------------------------|----------------------------------------|
|-------------------------|----------------------------------------|
|-------------------------|----------------------------------------|
|-------------------------|----------------------------------------|/Gtr. 2/
|-------------------------|-7-8-7-5-7--5--------6--4---------------|
|-------------------------|-5-6-5-3-5--3--------4--2-------5-6-5-3-|
                            . . . . .  .        .  .       . . . .

[Riff 1 (x5)]
|-------------------------|----------------------------------------|
|-------------------------|----------------------------------------|
|-------------------------|----------------------------------------|
|-------------7"-6"-------|----------------------------------------|
|-8"-7"-------------5"-4"-|---------7--5--------6--4---------------|
|-------6"-5"-------------|-5-6-5-3-5--3--2"...-4--2-1"...-5-6-5-3-|
                            . . . . .  .        .  .       . . . .

[Riff 2a (x4)]                       [Riff 2b (x4)]
|---------------------------------|  |---------------------------------|
|---------------------------------|  |---------------------------------|
|---------------------------------|  |---------------------------------|
|---------7-6---------------------|  |---------7-6---------------------|
|-8-7---------5-4-8-7-----9-8-----|  |-8-7---------5-4---------8-7-5-7-|
|-----6-5-------------6-5-----7-6-|  |-----6-5---------5-6-5-3---------|
  . . . . . . . . . . . . . . . .      . . . . . . . . . . . . . . . .

[Riff 3 (x4)]
|-------------------------------|-----------------------------------|
|-------------------------------|-----------------------------------|
|-------------------------------|-----------------------------------|
|---------7-6-------------------|---------7-6-----------------------|
|-8-7---------5-4---------7--5--|-8-7---------5-4-7--5--------6--4--|
|-----6-5---------5-6-5-3-5--3--|-----6-5---------5--3--2"...-4--2--|
  . . . . . . . . . . . . .  .    . . . . . . . . .  .        .  .

[RIFF 2a (x4)] [RIFF 2b (x4)]

[Riff 4a (x2)]
|--------------------------------------------------------------|
|--------------------------------------------------------------|
|--------------------------------------------------------------|
|--------------------------------------7-6---------------------|/Gtr. 1/
|-7---7---8---7---8---5--------8-7---------5-4---------8-7-5-7-|
|---5---5---5---5---5---5-[x2]-----6-5---------5-6-5-3---------|
| . . . . . . . . . . . .      . . . . . . . . . . . . . . . . |
|--------------------------------------------------------------|
|--------------------------------------------------------------|
|--------------------------------------5-4---------------------|
|------------------------------6-5---------3-2---------6-5-3-5-|/Gtr. 2/
|-7---7---8---7---8---5------------4-3---------3-4-3-2---------|
|---5---5---5---5---5---5-[x2]---------------------------------|
  . . . . . . . . . . . .      . . . . . . . . . . . . . . . .

[Riff 4b (x2)]
|----------------------------------------------------------------|
|----------------------------------------------------------------|
|----------------------------------------------------------------|
|----------------------------------------------------------------|
|-7---7---8---7---8---5--------10---10---11---10---11---8--------|
|---5---5---5---5---5---5-[x2]----8----8----8----8----8---8-[x2]-|
  . . . . . . . . . . . .      .  . .  . .  . .  . .  . . .

[Outro (x2)]
|-------------------------|
|-------------------------|
|-------------------------|
|-------------------------|
|-7---7---8---7---8---5---|
|---5---5---5---5---5---5-|
  . . . . . . . . . . . .

[Part 5 (x4)]
|---------------------------------|-----------------
|---------------------------------|-----------------
|---------------------------------|-----------------
|---------3---------------5-----2-|-----------------
|---------------5-----------------|-----------------
|-1-4-1-4---1-1---1-4-1-4---1-1---|-1-4-1-4-0-0-0-0-
  . . . .   . .   . . . .   . .     . . . . . . . .

----------------------------|
----------------------------|
----------------------------|
-3-----5-----7-----9-----6\-|
----------------------------|
---1-1---3-3---5-5---7-7----|
 . . . . . . . . . . . .

[INTRO] [RIFF 1 (x5)] [RIFF 3 (x4)] [RIFF 2a (x4)]
[RIFF 2b (x4)] [RIFF 4b (x2)] [OUTRO (x2)] [RIFF 5]

END OF SONG

  Visit MetalTabs.com for more metal tablature

bottom separator

Contact Us | Privacy Policy | Disclaimer | Legal Notice
Copyright © 2001-2014 MetalTabs.com. All Rights Reserved.