top separator

Home

Forum

What's New

Submit a Tab

FAQ

Links

Contact Us

Link to Us

MetalTabs.com logo

Bands

0-9

A

B

C

D

E

F

G

H

I

J

K

L

M

N

O

P

Q

R

S

T

U

V

W

X

Y

Z

Search

What

Where
 

Severed Savior - "Severed Savior" Guitar Tab

Plain Text Version
More Severed Savior Tabs

Hits: 2586
Rated: 3.00 out of 5 (2 votes)
Updated: 2006-06-21 09:30:26

 

By:

Yura

sendpm.gif

email.gif

Important note
This tab is available online because we obtained explicit permission from Severed Savior or their label.


#----------------------------------PLEASE NOTE---------------------------------#
#This file is the author's own work and represents their interpretation of the #
#song. You may only use this file for private study, scholarship, or research. #
#Unless specified otherwise, this is NOT an official tab from the band members.#
#------------------------------------------------------------------------------#

  Visit MetalTabs.com for more metal tablature
  
Song : SEVERED SAVIOR
Band : SEVERED SAVIOR
ALBUM : Brutality Is Law
Copyright Unique Leader Records 2003

Version 3.0 (May'06)
Transcribed by : Yura Kowalchuk
       contact : yura_kowalchuk@mail.ru
URL: [www.blood-scrapes.nm.ru]

::TABULATURE LEGEND::
 " - tremolo             h - hammer on
 ~ - vibrato             \ - slide down
 p - pull off            / - slide down
 tr - trill              ^ - pinch harmonics
 = - sustained note      b - bend string
 p.m. - palm muting      t - tapping

TUNING: C# [C#,F#,B,e,g#,c#]

[Riff 1 (x3)]
|---------------------------------|---------------------------------
|---------------------------------|---------------------------------
|-----------------------------7---|-----------------------------7---
|-7-----------7-----------7-----8-|-7-----------7-----------7-----8-
|---8-7-5-------8-7-5-------8-----|---8-7-5-------8-7-5-------8-----
|---------6-5---------6-5---------|---------6-5---------6-5---------
  . . . . . . . . . . . . . . . .   . . . . . . . . . . . . . . . .

|-----------------------------|
|-----------------------------|
|-----------------------------|
|-----------------5---6-------|
|-5-4-4-4-3-3-3-----------5---|
|-3-2-2-2-1-1---4---4---4---4-|
  . . . . . . . . . . . . . .

[Outro 1]
|-----------------------------|-----------------------------
|-----------------------------|-----------------------------
|-----------------------------|-----------------------------
|-----------------5---6-------|-----------------5---6-------
|-5-4-4-4-3-3-3-----------5---|-5-4-4-4-3-3-3-----------5---
|-3-2-2-2-1-1---4---4---4---4-|-3-2-2-2-1-1---4---4---4---4-
  . . . . . . . . . . . . . .   . . . . . . . . . . . . . .

---------------------|
---------------------|
---------------------|
---------------------|
-5-4-4-4-4-3---------|
-3-2-2-2-2-1---------|
 . . . . . .

[Riff 2]
|-------------------------|-----------------------------|-
|-------------------------|-----------------------------|-
|-------------------------|-------------------------7---|-
|-------------------------|-------------7-------7-----8-|-
|-5-4-4-4-3-3-5-4-4-4-3-3-|-5-4-4-4-3-3---8-7-5---8-----|-
|-3-2-2-2-1-1-3-2-2-2-1-1-|-3-2-2-2-1-1-----------------|-
  . . . . . . . . . . . .   . . . . . . . . . . . . . .

-|-------------------------|-----------------------------|
-|-------------------------|-----------------------------|
-|-------------------------|-----------------------------|
-|-------------------------|-------------7---------------|
-|-5-4-4-4-3-3-5-4-4-4-3-3-|-5-4-4-4-3-3---8-7-5-----7-5-|
-|-3-2-2-2-1-1-3-2-2-2-1-1-|-3-2-2-2-1-1---------6-5-----|
   . . . . . . . . . . . .   . . . . . . . . . . . . . .

[Outro 2]
|-------------------------|-----------------------------|-
|-------------------------|-----------------------------|-
|-------------------------|-------------------------7---|-
|-------------------------|-------------7-------7-----8-|-
|-5-4-4-4-3-3-5-4-4-4-3-3-|-5-4-4-4-3-3---8-7-5---8-----|-
|-3-2-2-2-1-1-3-2-2-2-1-1-|-3-2-2-2-1-1-----------------|-
| . . . . . . . . . . . . | . . . . . . . . . . . . . . |
|-------------------------|-----------------------------|-
|-------------------------|-----------------------------|-
|-------------------------|-------------------------7---|-
|-------------------------|-------------7-------7-----8-|-
|-5-4-4-4-3-3-5-4-4-4-3-3-|-5-4-4-4-3-3---8-7-5---8-----|-
|-3-2-2-2-1-1-3-2-2-2-1-1-|-3-2-2-2-1-1-----------------|-
  . . . . . . . . . . . .   . . . . . . . . . . . . . .

-|-------------------------|-------------------------------|-
-|-------------------------|-------------------------------|-
-|-------------------------|-------------------------------|-
-|-------------------------|-------------------------------|-
-|-5-4-4-4-3-3-5-4-4-4-3-3-|-5-4-4-4-3-3-------------------|-
-|-3-2-2-2-1-1-3-2-2-2-1-1-|-3-2-2-2-1-1-------------------|-
 | . . . . . . . . . . . . | . . . . . .                   |
-|-------------------------|-------------------------------|-
-|-------------------------|-------------------------------|-
-|-------------------------|-------------------------------|-
-|-------------------------|-------------6--------3--4--3--|-
-|-5-4-4-4-3-3-5-4-4-4-3-3-|-5-4-4-4-3-3-6--7--6--3--4--3--|-
-|-3-2-2-2-1-1-3-2-2-2-1-1-|-3-2-2-2-1-1----7--6-----------|-
   . . . . . . . . . . . .   . . . . . . .  .  .  .  .  .

-|-------------------------|
-|-------------------------|
-|-5"-------8"-7"----6"-5"-|
-|----6"-5"-------8"-------|/Gtr. 1/
-|-------------------------|
-|-------------------------|
 |                         |
-|-------------------------|
-|-------------------------|
-|-5"-------8"-7"----6"-5"-|
-|----6"-5"-------8"-------|/Gtr. 2/
-|-------------------------|
-|-------------------------|

[Riff 3a]
|-------------------------|----------------------------------------------|-
|-------------------------|----------------------------------------------|-
|-------------------------|----------------------5"-------8"-7"----6"-5"-|-
|-------------------------|-2-----2--------5--------6"-5"-------8"-------|-
|-2"-------5"-------------|-2--3--2--3--2--5--6--------------------------|-
|----3"-2"----2"-1"-2"-1"-|----3-----3--2-----6--------------------------|-
|                         | .  .  .  .  .  .  .                          |
|-------------------------|----------------------------------------------|-
|-------------------------|----------------------------------------------|-
|-------------------------|----------------------------------------------|-
|-------------------------|-2-----2--------5-----3"-------6"-5"----4"-3"-|-
|-2"-------5"-------------|-2--3--2--3--2--5--6-----4"-3"-------6"-------|-
|----3"-2"----2"-1"-2"-1"-|----3-----3--2-----6--------------------------|-
                            .  .  .  .  .  .  .

-|---------------------------------------------------------------|
-|---------------------------------------------------------------|
-|----------------------------------------------55----8877--6655-|
-|------------------------------------------------6655----88-----|/Gtr. 1/
-|-2"-------5"----1"-------3"-4"-2"-------5"---------------------|
-|----3"-2"----2"----2"-1"----------3"-2"----2"------------------|
 |                                              ................ |
-|---------------------------------------------------------------|
-|---------------------------------------------------------------|
-|---------------------------------------------------------------|
-|----------------------------------------------33----6655--4433-|/Gtr. 2/
-|-2"-------5"----1"-------3"-4"-2"-------5"------4433----66-----|
-|----3"-2"----2"----2"-1"----------3"-2"----2"------------------|
                                                ................

[Riff 3b]
|-------------------------|----------------------------------------------|-
|-------------------------|----------------------------------------------|-
|-------------------------|----------------------5"-------8"-7"----6"-5"-|-
|-------------------------|-2-----2--------5--------6"-5"-------8"-------|-
|-2"-------5"-------------|-2--3--2--3--2--5--6--------------------------|-
|----3"-2"----2"-1"-2"-1"-|----3-----3--2-----6--------------------------|-
                            .  .  .  .  .  .  .

-|---------------------------------------------------------------|
-|---------------------------------------------------------------|
-|----------------------------------------------55----8877--6655-|
-|------------------------------------------------6655----88-----|
-|-2"-------5"----1"-------3"-4"-2"-------5"---------------------|
-|----3"-2"----2"----2"-1"----------3"-2"----2"------------------|
                                                ................

[Outro 3]
|---------------------------------------------------------------|
|---------------------------------------------------------------|
|----------------------------------------------55----8877--6655-|
|-4"-------7"----3"-------5"-6"-4"-------7"------6655----88-----|/Gtr. 1/
|----5"-4"----4"----4"-3"----------5"-4"----4"------------------|
|---------------------------------------------------------------|
|                                              ................ |
|---------------------------------------------------------------|
|---------------------------------------------------------------|
|---------------------------------------------------------------|
|----------------------------------------------33----6655--4433-|/Gtr. 1/
|-2"-------5"----1"-------3"-4"-2"-------5"------4433----66-----|
|----3"-2"----2"----2"-1"----------3"-2"----2"------------------|
                                               ................
[Riff 4a]
|-----------------------------------------------|--------------
|-----------------------------------------------|--------------
|-----------------------------------------------|--------------
|-----------------------------------------------|--------------
|-7"...-10"...-6"...-9"...-7-----10---6-----8-9-|-7"...-10"...-
|----------------------------8-7----7---7-6-----|--------------
                           . . . .  . . . . . .

---------------------------------------------------------------|
---------------------------------------------------------------|
-----------------------------------------------5-----8-7---6-5-|
-------------------------------------------------6-5-----8-----|
-6"...-9"...-7"...-10"...-7-----10---6-----8-9-----------------|
----------------------------8-7----7---7-6---------------------|
                          . . . .  . . . . . . . . . . . . . .

[Riff 4b]
|-----------------------------------------------|--------------
|-----------------------------------------------|--------------
|-----------------------------------------------|--------------
|-----------------------------------------------|--------------
|-7"...-10"...-6"...-9"...-7-----10---6-----8-9-|-7"...-10"...-
|----------------------------8-7----7---7-6-----|--------------
|                          . . . .  . . . . . . |
|-----------------------------------------------|--------------
|-----------------------------------------------|--------------
|-----------------------------------------------|--------------
|-5"...-8"...--4"...-7"...----------------------|-5"...-8"...--
|--------------------------7-----10---6-----8-9-|--------------
|----------------------------8-7----7---7-6-----|--------------
                           . . . .  . . . . . .

---------------------------------------------------------------|
---------------------------------------------------------------|
-----------------------------------------------5-----8-7---6-5-|
-------------------------------------------------6-5-----8-----|/Gtr. 1/
-6"...-9"...-7"...-10"...-7-----10---6-----8-9-----------------|
----------------------------8-7----7---7-6---------------------|
                          . . . .  . . . . . . . . . . . . . . |
---------------------------------------------------------------|
---------------------------------------------------------------|
-----------------------------------------------5-----8-7---6-5-|
-4"...-7"...-5"...-8"...-------------------------6-5-----8-----|/Gtr. 2/
--------------------------7-----10---6-----8-9-----------------|
----------------------------8-7----7---7-6---------------------|
                          . . . .  . . . . . . . . . . . . . .

/break/

[Riff 5 (x4)]
|------------------------------|----------------------|
|------------------------------|----------------------|
|------------------------------|----------------------|
|------------------------------|---------8------------|
|-2-----5-4-3-2-----2----------|-6-5-------5---7------|
|---3-2---------3-2---3-2-[x2]-|-----7-6-----6---[x2]-|
  . . . . . . . . . . . .        . . . . . . . .

[Outro 3 (x2)]
|---------------------------------|---------------------------------
|---------------------------------|---------------------------------
|-----------------------------7---|-----------------------------7---
|-7-----------7-----------7-----8-|-7-----------7-----------7-----8-
|---8-7-5-------8-7-5-------8-----|---8-7-5-------8-7-5-------8-----
|---------6-5---------6-5---------|---------6-5---------6-5---------
  . . . . . . . . . . . . . . . .   . . . . . . . . . . . . . . . .

---------------------------------|
---------------------------------|
---------------------------------|
---------8---------------8-------|
-6-5-------5---7-6-5-------5---7-|
-----7-6-----6-------7-6-----6---|
 . . . . . . . . . . . . . . . .

[Outro 4]
|---------------------------------|---------------------------------|
|---------------------------------|---------------------------------|
|-----------------------------7---|---------------------------------|
|-7-----------7-----------7-----8-|---------8---------------8-------|
|---8-7-5-------8-7-5-------8-----|-6-5-------5---7-6-5-------5---7-|
|---------6-5---------6-5---------|-----7-6-----6-------7-6-----6---|
  . . . . . . . . . . . . . . . .   . . . . . . . . . . . . . . . .

[Riff 6 (x4)]
|----------------------------------|---------------------------------|
|----------------------------------|---------------------------------|
|----------------------------------|---------------------------------|
|------------------5-----8-7---6-5-|-----------------5-----8-7---6-5-|
|------------2h3p2---6-5-----8-----|---------3-----6---6-5-----8-----|
|-000-000-3~-----------------------|-000-000---4-3-------------------|
  ... ...          . . . . . . . .   ... ... . . . . . . . . . . . .

[Outro 5]
|----------------------------------------------|
|----------------------------------------------|
|----------------------5"-------8"-7"----6"-5"-|
|-2-----2--------5--------6"-5"-------8"-------|
|-2--3--2--3--2--5--6--------------------------|
|----3-----3--2-----6--------------------------|
  .  .  .  .  .  .  .

[RIFF 3a] [RIFF 3a /2 first bars only!!!/] [PART  5 (x2)]

[Ending]
|------------------------[x3]-|-
|-----------------------------|-
|-----------------------------|-
|-----------------5---6-------|-
|-5-4-4-4-3-3-3-----------5---|-
|-3-2-2-2-1-1---4---4---4---4-|-
  . . . . . . . . . . . . . .

-|-------------------------------------------------|------------|
-|-------------------------------------------------|------------|
-|-------------------------------------------------|------------|
-|-------------7-----------7-----------7-----------|------------|
-|-5-4-4-4-3-3---8-7-5-------8-7-5-------8-7-5-----|-2----------|
-|-3-2-2-2-1-1---------6-5---------6-5---------6-5-|-0----------|
   . . . . . . . . . . . . . . . . . . . . . . . .   .

END OF SONG

  Visit MetalTabs.com for more metal tablature

bottom separator

Contact Us | Privacy Policy | Disclaimer | Legal Notice
Copyright © 2001-2014 MetalTabs.com. All Rights Reserved.