top separator

Home

Forum

What's New

Submit a Tab

FAQ

Links

Contact Us

Link to Us

MetalTabs.com logo

Bands

0-9

A

B

C

D

E

F

G

H

I

J

K

L

M

N

O

P

Q

R

S

T

U

V

W

X

Y

Z

Search

What

Where
 

Putrid Pile - "STFC (Strangle the Fucking Cunt)" Guitar Tab

Plain Text Version
More Putrid Pile Tabs

Hits: 5102
Updated: 2006-06-21 09:30:05

 

By:

younguitarist

sendpm.gif

email.gif

Important note
This tab is available online because we obtained explicit permission from Putrid Pile or their label.


#----------------------------------PLEASE NOTE---------------------------------#
#This file is the author's own work and represents their interpretation of the #
#song. You may only use this file for private study, scholarship, or research. #
#Unless specified otherwise, this is NOT an official tab from the band members.#
#------------------------------------------------------------------------------#

  Visit MetalTabs.com for more metal tablature
  
Artist: Putrid Pile
Album: The Pleasure In Suffering
Song: Stfc
Transcribed by:Alvaro Ramirez
Email me for any comments or corrections:lazyguitarist@gmail.com
Tune guitars to C#
==============================================================================


.  - palm mute           /  - slide up to     ah - Artificial harmonics
\  - slide down to       ~  - vibrato         __ - Tremolo pick
h  - hammer on           b  - Bend                       \
p  - pull off            Suffixes for bend                \
t  - tap                 f  - full bend    h - half bend   \ - Dive with bar
ph - pinched harmonic    q  - quarter bend t - tap bend
*  - see comment         ^  - Hold bend    r release bend  /
x  - Staccato            ~  - vibrato bend                / - Raise with bar
,  - slight palm mute    () - ghost note, sustained note /
"  - tremolo note        <> - Trill


Intro
|------------------------------------------------------------|
|------------------------------------------------------------|
|------------------------------------------------------------|
|------------------------------------------------------------|4x
|-2222-5-4-5-4-3-4--3-2-0-------3-2-0----------3333----------|
|------3-2-3-2-1-2--------3-2-3-------3-2-3333------55555555-|
       . . . . . .

Riff 1
|-------------------------------------------------------------|
|-------------------------------------------------------------|
|-------------------------------------------------------------|
|-------------------------------------------------------------|4x
|-2"--------------2"--1"--2"--------2-2-2-3-3-3-2-2-2-2-3-3-3-|
|-----3"--0"--1"---------------3"---0-0-0-1-1-1-0-0-0-0-1-1-1-|
                                    . . . . . . . . . . . . .

Repeat
Intro 4x
Riff 4x

Riff 2
|---------------------|
|---------------------|
|---------------------|
|---------------------|
|-2----2----2----2----|
|-0----0----0----0----|
| .    .    .    .
|
|---------------------|
|---------------------|
|---------------------|
|---------------------|
|-------3-2-----------|
|-2-3-2-----3-2-3-0-1-|



Riff 3
|-------------------------------|-------|--------------|
|-------------------------------|-------|--------------|
|-------------------------------|-------|--------------|
|-------------------------------|-------|---------5/4--|2x
|-------------------------------|-5x...-|-4-5-4-2-3/2--|
|-000-0-000-0-000-0-000-0-000-0-|-------|-2-3-2-0------|
  ... . ... . ... . ... . ... .           . . . .

Riff 4
|--------------------------------------------------|
|--------------------------------------------------|
|--------------------------------------------------|
|-5-5-5-4-4-4-5-4-5--------7-7-7-6-6-6-7-6-7-------|4x
|-3-3-3-2-2-2-3-2-3-4-4-4--5-5-5-4-4-4-5-4-5-7-7-7-|
|-------------------2-2-2--------------------5-5-5-|


Repeat
Riff 3 2x


Riff 5
|---------------------------------|
|---------------------------------|
|---------------------------------|
|-------------------------2"--1"--|8x
|-3"--2"----------3"--2"----------|
|---------3"--2"------------------|


Repeat
Intro 4x


The End...

  Visit MetalTabs.com for more metal tablature

bottom separator

Contact Us | Privacy Policy | Disclaimer | Legal Notice
Copyright © 2001-2014 MetalTabs.com. All Rights Reserved.