top separator

Home

Forum

What's New

Submit a Tab

FAQ

Links

Contact Us

Link to Us

MetalTabs.com logo

Bands

0-9

A

B

C

D

E

F

G

H

I

J

K

L

M

N

O

P

Q

R

S

T

U

V

W

X

Y

Z

Search

What

Where
 

Haemorrhage - "Escavating the iliac Fossa" Guitar Tab

Plain Text Version
More Haemorrhage Tabs

Hits: 2999
Rated: 5.00 out of 5 (1 vote)
Updated: 2006-06-21 09:29:59

 

By:

KalimboJoe

sendpm.gif

email.gif

Important note
This tab is available online because we obtained explicit permission from Haemorrhage or their label.


#----------------------------------PLEASE NOTE---------------------------------#
#This file is the author's own work and represents their interpretation of the #
#song. You may only use this file for private study, scholarship, or research. #
#Unless specified otherwise, this is NOT an official tab from the band members.#
#------------------------------------------------------------------------------#

  Visit MetalTabs.com for more metal tablature
  
Band:  Haemorrhage
Album: Emetic Cult
Song:  Excavating the Illiac Fossa

Copyright (c)  Morbid Records 1995

Transcribed By: Leonhard Link (KalimboJoe)
Email:          leolink@gmx.de


AH = Artifical Harmonic
~  = Vibrato
b  = bending
/  = rest

 Tuning: b (b, e, a, d, f#, b)


Intro

||----------------------------|---------------------------|
||----------------------------|---------------------------|
||----------------------------|---------------------------|
||----------------------------|---------------------------|
||--2--3--2--7-7-2--3--2--7-7-|--2--3--2--7--10--9--7--6--|
||--0--1--0--5-5-0--1--0--5-5-|--0--1--0--5---8--7--5--4--|


----------------------------|--------------------------|
----------------------------|--------------------------|
----------------------------|--------------------------|
----------------------------|--------------------------|
--2--3--2--7-7-2--3--2--7-7-|--2--3--2--7--/--/--/--/--|
--0--1--0--5-5-0--1--0--5-5-|--0--1--0--5--/--/--/--/--|


A

3x                         1x
--------------------------|---------------------------|
--------------------------|---------------------------|
--------------------------|---------------------------|
--------------------------|---------------------------|
--2--3--2--7--2--3--2--7--|--2--3--2--7--10--9--7--6--|
--0--1--0--5--0--1--0--5--|--0--1--0--5---8--7--5--4--|


B

3x                         1x
--------------------------|--------------------|
--------------------------|--------------------|
--------------------------|--------------------|
--------------------------|--------------------|
--2--3-----3--6--5--7--6--|--7--------8--------|
--0--1-----1--4--3--5--4--|--5--------6--------|


C

------------------------|------------------------|------------------------|
------------------------|------------------------|------------------------|
------------------------|------------------------|------------------------|
------------------------|---------------AH3------|------------------------|
--6----6----6--6--6--6--|--7----7----2-----------|--7----7----7--7--7--7--|
--4----4----4--4--4--4--|--5----5----0-----------|--5----5----5--5--5--5--|


------------------------|
------------------------|
------------------------|
---------------AH2------|
--8----8----3-----------|
--6----6----1-----------|


D

-------------------------|-------------------------|
-------------------------|-------------------------|
-------------------------|-------------------------|
-------------------------|-------------------------|
--2--2--2--2--3---3---3--|--6--6--6--6--5---5---5--|
--0--0--0--0--1---1---1--|--4--4--4--4--3---3---3--|


-------------------------|------------------------|
-------------------------|------------------------|
-------------------------|------------------------|
-------------------------|------------------------|
--3--3--3--3--5---5---5--|--6---6---6--5---5---5--|
--1--1--1--1--3---3---3--|--4---4---4--3---3---3--|


Solo

|------------------------------|---------------------------|
|------------------------------|---------------------------|
|--13~--------14~---13~---13~--|--16~--------17---16---14--|
|------------------------------|---------------------------|
|------------------------------|---------------------------|
|------------------------------|---------------------------|

|------------------------------|---------------------------|
|------------------------------|---------------------------|
|--13~--------14~---13~---13~--|--17~---------19~----------|
|------------------------------|---------------------------|
|------------------------------|---------------------------|
|------------------------------|---------------------------|

|------------------------------|---------------------------|
|------------------------------|---------------------------|
|--13~--------14~---13~---13~--|--16~--------17---16---14--|
|------------------------------|---------------------------|
|------------------------------|---------------------------|
|------------------------------|---------------------------|


|------------------------------|---------------------------|
|------------------------------|---------------------------|
|--13~--------14~---13~---13~--|--17~---------20b----------|
|------------------------------|---------------------------|
|------------------------------|---------------------------|
|------------------------------|---------------------------|
END

|--------------------------||
|--------------------------||
|--------------------------||
|--------------------------||
|--2-----------------------||
|--0-----------------------||



Intro
A 2x
B 2x
A 2x
B 2x
C 4x
D 2x
D 2x    +    Solo
B 2x
A 2x
End


________________________________________________________________________________
Please Visit my gore grind band Anus Brigade at www.myspace.com/anusbrigade.

  Visit MetalTabs.com for more metal tablature

bottom separator

Contact Us | Privacy Policy | Disclaimer | Legal Notice
Copyright © 2001-2014 MetalTabs.com. All Rights Reserved.