top separator

Home

Forum

What's New

Submit a Tab

FAQ

Links

Contact Us

Link to Us

MuSpy.com

MetalTabs.com logo

Bands

0-9

A

B

C

D

E

F

G

H

I

J

K

L

M

N

O

P

Q

R

S

T

U

V

W

X

Y

Z

Search

What

Where
 

Pestilence - "Mind Reflections" Bass Tab

Plain Text Version
More Pestilence Tabs

Hits: 4484
Rated: 5.00 out of 5 (3 votes)
Updated: 2006-06-21 09:27:43

 

By:

epitaph

sendpm.gif

email.gif

Important note
This tab is available online because we obtained explicit permission from Pestilence or their label.


#----------------------------------PLEASE NOTE---------------------------------#
#This file is the author's own work and represents their interpretation of the #
#song. You may only use this file for private study, scholarship, or research. #
#Unless specified otherwise, this is NOT an official tab from the band members.#
#------------------------------------------------------------------------------#

  Visit MetalTabs.com for more metal tablature
  
Band: Pestilence
Album: Spheres
Song: Mind Reflections

Roadrunner Records 1993

Tabbed by Lassi Nurminen (aka, epitaph)
E-Mail: gaborik10@hotmail.com / gaborik@welho.com

Tuning: EADG

0:00
|------------------------|
|------------------------| Four
|-1-------1---1-------1--| Times
|---2-0-2---2---2-0-2----|

0:16 (note that these parts may have occasional slides)
|-----------------------------------------------------|
|-----------------------------------------------------|
|---------------------------------10-9---------11-10--|
|-0000-6--8-7-0000-6--9-8-0000-6-------0000-6---------|
Continues:
|--------------------------------------------------|
|--------------------------------------------------|
|---------------------------------8-7---------9-8--|
|-0000-6--8-7-0000-6--9-8-0000-6------0000-6-------|
Continues:
|--------------------------------------------------------|
|-------------------------------------------8--10-11-10--|
|--------------------------------------------------------|
|-0000-6--8-7-0000-6--9-8-0000-6--8-7-0000---------------|

0:35
|------------------------|
|------------------------| Four
|------------------------| Times
|-3-2-5-1-6-4-7-2-3-4-5--|

0:50
|--------------------------------------------------|
|--------------------------------------------------|
|---------------------------------8-7---------9-8--|
|-0000-6--8-7-0000-6--9-8-0000-6------0000-6-------|
Continues:
|-----------------------------------------------------|
|-----------------------------------------------------|
|---------------------------------10-9---------11-10--|
|-0000-6--8-7-0000-6--9-8-0000-6-------0000-6---------|
Continues:
|--------------------------------------------------|
|--------------------------------------------------|
|---------------------------------8-7---------9-8--|
|-0000-6--8-7-0000-6--9-8-0000-6------0000-6-------|
Continues:
|--------------------------|
|--------------------------|
|--------------------------|
|-0000-6--8-7-0000-6--9-8--|

1:12
|------------------------|
|------------------------| Four
|------------------------| Times
|-3-2-5-1-6-4-7-2-3-4-5--|

1:24
|------------------------|
|------------------------| Four
|-1-------1---1-------1--| Times
|---2-0-2---2---2-0-2----|

1:33
|--------------------|
|-----------5-----2--| Eight
|--------------------| Times
|-3-6---3-6---3-6----|

1:51
|--------------------|
|-----------6-----3--| Four
|--------------------| Times
|-4-7---4-7---4-7----|

2:00
|------------------------|
|------------------------| Two
|-1-------1---1-------1--| Times
|---2-0-2---2---2-0-2----|

2:02
|---------------------------------------------------|
|---------------------------------------------------|
|---------------------------------10-9--------------|
|-0000-6--8-7-0000-6--9-8-0000-6-------0000-6--9-8--|
Continues:
|-6-6-6----------7-7-7------------|
|---------------------------------|
|---------------------------------|
|-------0-6--9-8-------00-6--9-8--|

2:15
|------------------------|
|------------------------| Four
|------------------------| Times
|-3-2-5-1-6-4-7-2-3-4-5--|
Play it like this for the second time:
|-------------------|
|-------------------|
|-------------2-----|
|-3-2-5-1-6-4----2--|

2:27
|------------------------|
|------------------------| Four
|-------------4----------| Times
|-5-4-7-3-8-6---4-5-6-7--|

2:38
|------------------------|
|------------------------| Two
|-1-------1---1-------1--| Times
|---2-0-2---2---2-0-2----|

2:41
|--------------------|
|-----------5-----2--| Eight
|--------------------| Times
|-3-6---3-6---3-6----|

2:50
|--------------------|
|-----------6-----3--| Four
|--------------------| Times
|-4-7---4-7---4-7----|

2:59
|------------------------|
|------------------------| Eight
|-1-------1---1-------1--| Times
|---2-0-2---2---2-0-2----|

.  - palm mute           /  - slide up to
\  - slide down to       ~  - vibrato
h  - hammer on           b  - Bend
p  - pull off            Suffixes for bend
t  - tap                 f  - full bend    h - half bend
ph - pinched harmonic    q  - quarter bend t - tap bend
*  - see comment         ^  - Hold bend    r release bend
x  - Stuccatto           ~  - vibrato bend
,  - slight palm mute    () - ghost note, sustained note
"  - tremolo note        <> - Trill

  Visit MetalTabs.com for more metal tablature

bottom separator

Contact Us | Privacy Policy | Disclaimer | Legal Notice
Copyright © 2001-2014 MetalTabs.com. All Rights Reserved.