top separator

Home

Forum

What's New

Submit a Tab

FAQ

Links

Contact Us

Link to Us

MuSpy.com

MetalTabs.com logo

Bands

0-9

A

B

C

D

E

F

G

H

I

J

K

L

M

N

O

P

Q

R

S

T

U

V

W

X

Y

Z

Search

What

Where
 

Atheist - "Water" Bass Tab

Plain Text Version
More Atheist Tabs

Hits: 5750
Rated: 4.22 out of 5 (9 votes)
Updated: 2007-04-11 22:59:53

 

By:

epitaph

sendpm.gif

email.gif

Important note
This tab is available online because we obtained explicit permission from Atheist or their label.


#----------------------------------PLEASE NOTE---------------------------------#
#This file is the author's own work and represents their interpretation of the #
#song. You may only use this file for private study, scholarship, or research. #
#Unless specified otherwise, this is NOT an official tab from the band members.#
#------------------------------------------------------------------------------#

  Visit MetalTabs.com for more metal tablature
  
Band: Atheist
Album: Elements
Song: Water

Copyright (c) Music for Nations 1993 / Relapse Records 2005
Version 2.0 - 9th of April, 2007

Transcribed By: Lassi Nurminen (aka, epitaph)
Email: Gaborik10@hotmail.com / Gaborik@welho.com

EADG (from low to high)

0:03
|-----------------------5-4-----------------------4-5-|
|---4-5----5-6----------------4-5----5-6--------------|
|-2------6-------5-6--------2------6-------5-6--------|
|--------------3------3------------------3------3-----|

0:10
|-----------------------5-4-|
|---4-5----5-6--------------| Five
|-2------6-------5-6--------| Times
|--------------3------3-----|

0:26
|-----------------------4-5-----------------------5-4-|
|---4-5----5-6----------------4-5----5-6--------------| Twice
|-2------6-------5-6--------2------6-------5-6--------|
|--------------3------3------------------3------3-----|

0:39
|-------------------------------|
|-------------------------------| Four
|-2-2-2-3--33-------------------| Times
|-------------22-2-2-2-11-1-1-1-|

0:52
|------------------------------------------------|
|----------------------------------9-7-----------|
|-2---3------4-----3---2---3----/7-----7-9-7-5-7-|
|---2---3--2---2-1---1---2---3-------------------|

|-----------------------------------------|
|-----------------------------------------|
|-2---3------4-----3---2---3------4-----3-|
|---2---3--2---2-1---1---2---3--2---2-1---|

1:05
|-----------------------4-5------------------------5-4-|
|---4-5----5-6----------------4-5----5-6---------------| Twice
|-2------6-------5-6--------2------6--------5-6--------|
|--------------3------3-------------------3------3-----|

|-----------------------5-4-|
|---4-5----5-6--------------| Four
|-2------6-------5-6--------| Times
|--------------3------3-----|

1:31
|-----------------------4-5-----------------------5-4-|
|---4-5----5-6----------------4-5----5-6--------------|
|-2------6-------5-6--------2------6-------5-6--------|
|--------------3------3------------------3------3-----|

|-----------------------4-5-------|
|---4-5----5-6----------------4-5-|
|-2------6-------5-6--------2-----|
|--------------3------3-----------|

1:42
|--------------------------------4-------------------|
|----------------------------------------------------|
|-2-2-2-2--22-2-2-2--5-5-55--2-2---2--22-2-2-2-5--/9-|
|----------------------------------------------------|

|-----4--------------------4--------------------|
|-----------------------------------------------|
|-2-2---2--22-2-2-2-5--2-2---2--22-2-2-2-5-5-55-|
|-----------------------------------------------|

1:55
|-------------------|
|-------------------|
|-------------------|
|-0-2---3---0-2---3-|

2:01
Slap & Pop -  If someone has a better view
of how to play this part, please get in touch with me.
This is just how I'd play the whole section:
|------------------------------------------------|
|----55-----------77-----------55-----------77---|
|------------------------------------------------|
|-0-----3--3-2-0-----5--3-2-0-----3--3-2-0-----5-|

|-----------------------------------------------------------|
|--------55-----------77-----------55-----------77----------|
|-----------------------------------------------------------|
|-3-2-0-----3--3-2-0-----5--3-2-0-----3--3-2-0-----5--3-2-0-|

2:14
|-------------------------------|
|-------------------------------| Four
|-2-2-2-3--33-------------------| Times
|-------------22-2-2-2-11-1-1-1-|

2:26
|-----------------------------------------------|
|---------------------------------9---7---5---4-|
|-2---3------4-----3---2---3----7---5---3---2---|
|---2---3--2---2-1---1---2---3------------------|

|-----------------------------------------|
|-----------------------------------------|
|-2---3------4-----3---2---3------4-----3-|
|---2---3--2---2-1---1---2---3--2---2-1---|

2:39
|-----------------------------|
|---9----7---------7----5-----| Four
|-7----------10--5----------8-| Times
|-----8----8---------6----6---|

2:52
|---------|
|---------|
|---------|
|-0-2---3-|

2:55
|------------------------------------------------|
|----55-----------77-----------55-----------77---|
|------------------------------------------------|
|-0-----3--3-2-0-----5--3-2-0-----3--3-2-0-----5-|

|----------------------------------------------------|
|--------55-----------77-----------55-----------77---| Improvise &
|----------------------------------------------------| repeat a few times..
|-3-2-0-----3--3-2-0-----5--3-2-0-----3--3-2-0-----5-|

3:20
|-----------------------4-5-----------------------5-4-|
|---4-5----5-6----------------4-5----5-6--------------| Twice
|-2------6-------5-6--------2------6-------5-6--------|
|--------------3------3------------------3------3-----|

|-----------------------5-4-|
|---4-5----5-6--------------| Four
|-2------6-------5-6--------| Times
|--------------3------3-----|

|-----------------------4-5-----------------------5-4-|
|---4-5----5-6----------------4-5----5-6--------------| Twice
|-2------6-------5-6--------2------6-------5-6--------|
|--------------3------3------------------3------3-----|

3:58
|-------------------------------|
|-------------------------------| Four
|-2-2-2-3--33-------------------| Times
|-------------22-2-2-2-11-1-1-1-|

4:10
|------------------------------------------------|
|----------------------------------9-7-----------|
|-2---3------4-----3----2---3---/7-----7-9-7-5-7-|
|---2---3--2---2-1---1----2---3------------------|

|-----------------------------------------|
|-----------------------------------------|
|-2---3-----4-----3----2---3-----4--------|
|---2---3-2---2-1---1----2---3-2---2-11-1-|

Thats it, cheers!

  Visit MetalTabs.com for more metal tablature

bottom separator

Contact Us | Privacy Policy | Disclaimer | Legal Notice
Copyright © 2001-2014 MetalTabs.com. All Rights Reserved.