top separator

Home

Forum

What's New

Submit a Tab

FAQ

Links

Contact Us

Link to Us

MetalTabs.com logo

Bands

0-9

A

B

C

D

E

F

G

H

I

J

K

L

M

N

O

P

Q

R

S

T

U

V

W

X

Y

Z

Search

What

Where
 

Cock and Ball Torture - "Panda Penis" Guitar Tab

Plain Text Version
More Cock and Ball Torture Tabs

Hits: 6806
Rated: 5.00 out of 5 (3 votes)
Updated: 2007-02-14 00:20:07

 

By:

Licky Webster

sendpm.gif

email.gif

Important note
This tab is available online because we obtained explicit permission from Cock and Ball Torture or their label.


#----------------------------------PLEASE NOTE---------------------------------#
#This file is the author's own work and represents their interpretation of the #
#song. You may only use this file for private study, scholarship, or research. #
#Unless specified otherwise, this is NOT an official tab from the band members.#
#------------------------------------------------------------------------------#

  Visit MetalTabs.com for more metal tablature
  
Cock And Ball Torture
Opus(sy) VI
Panda Penis

Copyright (c)  Shredded records 2000
Version 1.1 - 30.1.2007

Transcribed By: Yaniv D.
Email:          lickywebster@yahoo.com


.  - palm mute           /  - slide up to
\  - slide down to       ~  - vibrato
h  - hammer on           b  - Bend
p  - pull off            Suffixes for bend
t  - tap                 f  - full bend    h - half bend
ph - pinched harmonic    q  - quarter bend t - tap bend
*  - see comment         ^  - Hold bend    r release bend
x  - Stuccatto           ~  - vibrato bend
,  - slight palm mute    () - ghost note, sustained note
"  - tremolo note        <> - Trill

Tuning is B

Riff A1             Riff A2
|-------------------|-------------------|
|-------------------|-------------------|
|-------------------|-------------------|
|-------------------|-------------------|
|-5\3-2-2-2-7/8\7---|-5\3-2-2-2-7-8-7---|
|-3\1-0-0-0-5/6\5---|-3\1-0-0-0-5-6-5---|
                          . . . . . .

Riff A3
|-----------------------------------|
|-----------------------------------|
|-----------------------------------|
|-----------------------------------|
|-5\3-2-2-2-7-8-7-5\3-2-2-2-7-8-----|
|-3\1-0-0-0-5-6-5-3\1-0-0-0-5-6-----|
      . . . . . .     . . . . .

Riff B
|---------------------------------|
|---------------------------------|
|---------------------------------|
|---------------------------------|
|-2-2-2-6-\-5---2-----2---3-5-3---|
|-0-0-0-4-\-3-3-2---3-2---1-3-1---|
  . . .       .     .     . .

Riff C                 End
|-------------------|  |-----------|
|-------------------|  |-----------|
|-------------------|  |-----------|
|-------------3/5---|  |-----------|
|-------------1/3---|  |-2---------|
|-3-1-3-1-0-0-------|  |-0---------|
  . . . . . .

Structure

Riff A1 x4
Riff A2 x4
Riff A1 x4
Riff A3 x4

Riff B  x4
Riff C  x8
Riff B  x4

Riff A1 x4
Riff A2 x4
Riff A1 x4
Riff A3 x4

Riff B  x4
Riff C  x8
End

  Visit MetalTabs.com for more metal tablature

bottom separator

Contact Us | Privacy Policy | Disclaimer | Legal Notice
Copyright © 2001-2014 MetalTabs.com. All Rights Reserved.