top separator

Home

Forum

What's New

Submit a Tab

FAQ

Links

Contact Us

Link to Us

MuSpy.com

MetalTabs.com logo

Bands

0-9

A

B

C

D

E

F

G

H

I

J

K

L

M

N

O

P

Q

R

S

T

U

V

W

X

Y

Z

Search

What

Where
 

God Forbid - "The End of the World" Guitar Tab

Plain Text Version
More God Forbid Tabs

Hits: 8100
Rated: 3.00 out of 5 (4 votes)
Updated: 2006-06-09 23:03:04

 

By:

sendpm.gif

email.gif

Important note
This tab is available online because we obtained explicit permission from God Forbid or their label.


#----------------------------------PLEASE NOTE---------------------------------#
#This file is the author's own work and represents their interpretation of the #
#song. You may only use this file for private study, scholarship, or research. #
#Unless specified otherwise, this is NOT an official tab from the band members.#
#------------------------------------------------------------------------------#

  Visit MetalTabs.com for more metal tablature
  
Band: God Forbid
Album: IV: Constitution Of Treason
Song:  The End Of The World

Copyright (c)  Century Media 2005
Version 1.0 - 27/04/06

Transcribed By: Killswitch_mike
Email:          Metallica_madmike@hotmail.com


.  - palm mute           /  - slide up to
\  - slide down to       ~  - vibrato
h  - hammer on           b  - Bend
p  - pull off            Suffixes for bend
t  - tap                 f  - full bend    h - half bend
ph - pinched harmonic    q  - quarter bend t - tap bend
*  - see comment         ^  - Hold bend    r release bend
x  - Stuccatto           ~  - vibrato bend
,  - slight palm mute    () - ghost note, sustained note
"  - tremolo note        <> - Trill


Intro :

Clean;

D|----------------------------------------------------5-5-----|
A|-----------------------------------------------------4------|
F|---10-9--7-6-7-7--12-12-10^---10-9--7-6-7-7-3-3-5^----------|
C|----0-0--0-0-0-0---0--0--0-----0-0--0-0-0-0-0-0-0-----------|
G|------------------------------------------------------------|
C|------------------------------------------------------------|


D|----------------------------------------------------------------|
A|----------------------------------------------------------------| Carry on
F|----------------------------------------------------------------| With
C|---------000000000---------000000000-----------66666666---------| this..
G|------3--000000000------3--000000000------8----66666666------8--|
C|--3p0----000000000--3p0----000000000--6p0------66666666--6p0----|
           .........         .........           ........

----------------------|
----------------------|        ^^^^         ^^^^^^^
----------------------|     < Repeat all Of This Riff
----------000000000---|
------10--000000000---|
--7p0-----000000000---|
          .........

D|--------------------------|
A|--------------------------|
F|--7~----------------------|
C|--7~----------<<<<<<<<<<--|
G|--5~----------<<<<<<<<<<--|
C|--0~----------<<<<<<<<<<--|

Verse: ( Worldwide... Genocide...)

D|-----------------------------------------------|
A|-----------------------------------------------|
F|-------------------------------------7h5h7-9^^-|
C|--3-3-3--3333-3333-33-3--3h2h3-3h2p0-----------|
G|--3-3-3--3333-3333-33-3--3h2h3-3h2p0-----------|
C|--3-3-3--3333-3333-33-3--3h2h3-3h2p0-----------|
    . . .  .... .... .. .

D|-----------------------------------------------------|
A|-----------------------------------------------------|
F|-----------------------------------------------------|
C|--3-3-3--3333-3333-33-3--3h2h3-3h2p0-----------------|
G|--3-3-3--3333-3333-33-3--3h2h3-3h2p0-----------------|
C|--3-3-3--3333-3333-33-3--3h2h3-3h2p0-7h5h7-3^^--3*^--|
    . . .  .... .... .. .


 ------------------------ ^REPEAT^ ------------------------------------



Interlude:

D|------------------------|
A|------------------------|
F|------------------------|
C|-0-------0-------0------|
G|-0-------0-------0------|
C|-0--7^^--0--5^^--0--3^^-|

Chorus:

D|-------------------------------------|
A|-------------------------------------|
F|-------------------------------------|
C|--000-0~---77-66--1-000--------------| x 2 then...
G|--000-0~----------1-000--------------|
C|--000-0~----------0-000-0-5-7-5-8^^--|
    ...               ...

D|-----|
A|-----|
F|-----|
C|----0| }
G|----0| } very sudden pause
C|----0| }


verse:

Verse: ( Worldwide... Genocide...)

D|-----------------------------------------------|
A|-----------------------------------------------|
F|-------------------------------------7h5h7-9^^-|
C|--3-3-3--3333-3333-33-3--3h2h3-3h2p0-----------|
G|--3-3-3--3333-3333-33-3--3h2h3-3h2p0-----------|
C|--3-3-3--3333-3333-33-3--3h2h3-3h2p0-----------|
    . . .  .... .... .. .

D|-----------------------------------------------------|
A|-----------------------------------------------------|
F|-----------------------------------------------------|
C|--3-3-3--3333-3333-33-3--3h2h3-3h2p0-----------------|
G|--3-3-3--3333-3333-33-3--3h2h3-3h2p0-----------------|
C|--3-3-3--3333-3333-33-3--3h2h3-3h2p0-7h5h7-3^^--3*^--|
    . . .  .... .... .. .


 ------------------------ ^REPEAT^ ------------------------------------







Interlude:

D|------------------------|
A|------------------------|
F|------------------------|
C|-0-------0-------0------|
G|-0-------0-------0------|
C|-0--7^^--0--5^^--0--3^^-|

Chorus:

D|-------------------------------------|
A|-------------------------------------|
F|-------------------------------------|
C|--000-0~---77-66--1-000--------------| x 2 then...
G|--000-0~----------1-000--------------|
C|--000-0~----------0-000-0-5-7-5-8^^--|
    ...               ...

Solo Interlude (main riff):

D|----------------------------------------------------------------|
A|----------------------------------------------------------------|
F|----------------------------------------------------------------|
C|---------000000000---------000000000-----------66666666---------| x 4
G|------3--000000000------3--000000000------8----66666666------8--|
C|--3p0----000000000--3p0----000000000--6p0------66666666--6p0----|

           .........         .........           ........

solo:

( cant figure this out yet, its really hard) If someone can work
 it out please email it to
me and i'll give you ALOT of credit. sweeping at the end i think


second guitar part in solo:

D|------------------------|
A|------------------------|
F|------------------------|
C|-0-------0-------0------| x 3
G|-0-------0-------0------|
C|-0--7^^--0--5^^--0--3^^-|



fill:


D|-----------|--------------------------|
A|-----------|--------------------------|
F|-----------|--------------------------|
C|---0000000-|-0-0-0-0~--0-0-0-0~-------|  x 5
G|---0000000-|-0-0-0-0~--0-0-0-0~-------|
C|---0000000-|-0-0-0-0~--0-0-0-0~-------|
     .......   . . .     . . .

D|-----------------------|
A|-----------------------|
F|-----------------------|
C|-0-1-2-0--3-0-1-2-0--3-|  x 4
G|-0-1-2-0--2-0-1-2-0--2-|
C|-0-1-2-0----0-1-2-0----|
   . . . .    . . . .

fill:


D|-----------|--------------------------|
A|-----------|--------------------------|
F|-----------|--------------------------|
C|---0000000-|-0-0-0-0~--0-0-0-0~-------|  x 5
G|---0000000-|-0-0-0-0~--0-0-0-0~-------|
C|---0000000-|-0-0-0-0~--0-0-0-0~-------|
     .......   . . .     . . .



D|------------------------|
A|------------------------|
F|------------------------|
C|-0-1-2-0--3--0-1-2-0--3-|  x 4 then ...
G|-0-1-2-0--2--0-1-2-0--2-|
C|-0-1-2-0-----0-1-2-0----|
   . . . .     . . . .

D|------------------|
A|------------------|
F|------------------|
C|-3333333-2222222-0|
G|-3333333-2222222-0|
C|-3333333-2222222-0|
   ....... .......


outro:

D|-------------------------|
A|-------------------------|
F|-------------------------| x 5
C|-00-000-00-000-00-000----|
G|-00-000-00-000-00-000----|
C|-00-000-00-000-00-000----|


end on this

D|----------------|
A|----------------|
F|----------------|
C|--2~------------|
G|--2~------------|
C|--2~------------|

  Visit MetalTabs.com for more metal tablature

bottom separator

Contact Us | Privacy Policy | Disclaimer | Legal Notice
Copyright © 2001-2014 MetalTabs.com. All Rights Reserved.