top separator

Home

Forum

What's New

Submit a Tab

FAQ

Links

Contact Us

Link to Us

MetalTabs.com logo

Bands

0-9

A

B

C

D

E

F

G

H

I

J

K

L

M

N

O

P

Q

R

S

T

U

V

W

X

Y

Z

Search

What

Where
 

Darkthrone - "De Underjordiske (Elia Capitolina)" Guitar Tab

Plain Text Version
More Darkthrone Tabs

Hits: 2592
Rated: 1.00 out of 5 (1 vote)
Updated: 2006-06-09 23:00:22

 

By:

wilk

sendpm.gif

email.gif

Important note
This tab is available online because we obtained explicit permission from Darkthrone or their label.


#----------------------------------PLEASE NOTE---------------------------------#
#This file is the author's own work and represents their interpretation of the #
#song. You may only use this file for private study, scholarship, or research. #
#Unless specified otherwise, this is NOT an official tab from the band members.#
#------------------------------------------------------------------------------#

  Visit MetalTabs.com for more metal tablature
  
Band:  darkthrone
Album: the cult is alive
Song:  de inderjordiske

2006

Transcribed By: wilk
Email:          wilknoctis@interia.pl


.  - palm mute           /  - slide up to
\  - slide down to       ~  - vibrato
h  - hammer on           b  - Bend
p  - pull off            Suffixes for bend
t  - tap                 f  - full bend    h - half bend
ph - pinched harmonic    q  - quarter bend t - tap bend
*  - see comment         ^  - Hold bend    r release bend
x  - Stuccatto           ~  - vibrato bend
,  - slight palm mute    () - ghost note, sustained note
"  - tremolo note        <> - Trill

Tuning E A D G B E
riff1
|-------------------------------------------------------------------|
|-------------------------------------------------------------------|
|-----------7-----9-7-9-7-9---------4--------4-------------9----------
|-2---------7-----9-7-9-7-9--5------4---5----4--next time--9----------|
|-2---------5-----7-5-7-5-7--5------2---5----2-------------7----------
|-0--------------------------5----------3---------------------------
riff2
|-------------------------------------------------------------------|
|-------------------------------------------------------------------|
|-------------------------------------------------------------------|
|-------------------------------------------------------------------|
|-8----11----9--8---9-10-11----8----3--4----6---3--------------------|
|-6-----9----7--6---7--8--9----6----1--2----4---1--------------------|
riff3(it's hard to hear each guitar but i think it's ok for 70%)
|-------------------------------------------------------------------|
|-------------------------------------------------------------------|
|-------------------------------------------------------------------|
|-0h2---------3--0h2------------0h2--------3--0h2----------------------
|-----------------------------5--------------------------0-------------|
|------0-0-0---------0--0-0---2------0-0-0--------0-0--0-2/3----------|

it goes like this
riff1
riff2
riff1
riff2
riff3


END

  Visit MetalTabs.com for more metal tablature

bottom separator

Contact Us | Privacy Policy | Disclaimer | Legal Notice
Copyright © 2001-2014 MetalTabs.com. All Rights Reserved.