top separator

Home

Forum

What's New

Submit a Tab

FAQ

Links

Contact Us

Link to Us

MetalTabs.com logo

Bands

0-9

A

B

C

D

E

F

G

H

I

J

K

L

M

N

O

P

Q

R

S

T

U

V

W

X

Y

Z

Search

What

Where
 

Atheist - "Displacement" Bass Tab

Plain Text Version
More Atheist Tabs

Hits: 3002
Rated: 5.00 out of 5 (3 votes)
Updated: 2006-06-09 22:17:40

 

By:

epitaph

sendpm.gif

email.gif

Important note
This tab is available online because we obtained explicit permission from Atheist or their label.


#----------------------------------PLEASE NOTE---------------------------------#
#This file is the author's own work and represents their interpretation of the #
#song. You may only use this file for private study, scholarship, or research. #
#Unless specified otherwise, this is NOT an official tab from the band members.#
#------------------------------------------------------------------------------#

  Visit MetalTabs.com for more metal tablature
  
Artist: Atheist
Album: Elements
Song: Displacement

Tabbed by Lassi Nurminen (aka, epitaph)
E-Mail: gaborik10@hotmail.com / gaborik@welho.com

.  - palm mute           /  - slide up to
\  - slide down to       ~  - vibrato
h  - hammer on           b  - Bend
p  - pull off            Suffixes for bend
t  - tap                 f  - full bend    h - half bend
ph - pinched harmonic    q  - quarter bend t - tap bend
*  - see comment         ^  - Hold bend    r release bend
x  - Stuccatto           ~  - vibrato bend
,  - slight palm mute    () - ghost note, sustained note
"  - tremolo note        <> - Trill

Tuning: EADG

|------------9--------------------------------------9-----5----4--|
|----------9---9---------9-------------12-------------------------|
|-------7--------------9---9--------12----12------7-----3----2----|
|-10\---------------7---------7-10-------------0------------------|

|-------9------------------------------------9-------------|
|-----9---9--------9------------12------------------5-4----|
|-/7-------------9---9-------12----12------7------5-----5--|
|-------------7---------7-10------------0------------------|

|-------9-------------------------------------9-----5----4--|
|-----9---9--------9-------------12-------------------------|
|-/7-------------9---9--------12----12------7-----3----2----|
|-------------7---------7-10-------------0------------------|

|-------9------------------------------------|
|-----9---9--------9-------------12----------|
|-/7-------------9---9--------12----12-------|
|-------------7---------7-10------------0-0--|

|-------9---------------------------7xx--------------9-----5----4--|
|----99---9-7h9--------9---------77-----5h7------------------------|
|-/7----------------99---9-7/9p5------------5h7----7-----3----2----|
|--------------7-7------------------------------0------------------|

|-------9xx---------------------------7----------9-----------|
|----99-----7-7/9------9-----------77---7-------------5-4----|
|-/7----------------99---9-7/99-5---------5----7----5-----5--|
|-----------------7-------------------------0----------------|


|-------9-------------------------------------9-----5----4--|
|-----9---9--------9-------------12-------------------------|
|-/7-------------9---9--------12----12------7-----3----2----|
|-------------7---------7-10-------------0------------------|

|-------9------------------------------------|
|-----9---9--------9-------------12----------|
|-/7-------------9---9--------12----12-------|
|-------------7---------7-10------------0-0--|

  Visit MetalTabs.com for more metal tablature

bottom separator

Contact Us | Privacy Policy | Disclaimer | Legal Notice
Copyright © 2001-2014 MetalTabs.com. All Rights Reserved.