top separator

Home

Forum

What's New

Submit a Tab

FAQ

Links

Contact Us

Link to Us

MuSpy.com

MetalTabs.com logo

Bands

0-9

A

B

C

D

E

F

G

H

I

J

K

L

M

N

O

P

Q

R

S

T

U

V

W

X

Y

Z

Search

What

Where
 

Darkthrone - "Too Old, Too Cold" Guitar Tab

Plain Text Version
More Darkthrone Tabs

Hits: 5433
Rated: 2.86 out of 5 (7 votes)
Updated: 2006-11-03 23:40:19

 

By:

wilk

sendpm.gif

email.gif

Important note
This tab is available online because we obtained explicit permission from Darkthrone or their label.


#----------------------------------PLEASE NOTE---------------------------------#
#This file is the author's own work and represents their interpretation of the #
#song. You may only use this file for private study, scholarship, or research. #
#Unless specified otherwise, this is NOT an official tab from the band members.#
#------------------------------------------------------------------------------#

  Visit MetalTabs.com for more metal tablature
  
Band:  darkthrone
Album: the cult is alive
Song:  too old too cold

Copyright (c)  peaceville 2006


Transcribed By: wilk
Email:          wilknoctis@interia.pl

.  - palm mute           /  - slide up to
\  - slide down to       ~  - vibrato
h  - hammer on           b  - Bend
p  - pull off            Suffixes for bend
t  - tap                 f  - full bend    h - half bend
ph - pinched harmonic    q  - quarter bend t - tap bend
*  - see comment         ^  - Hold bend    r release bend
x  - Stuccatto           ~  - vibrato bend
,  - slight palm mute    () - ghost note, sustained note
"  - tremolo note        <> - Trill

Tuning E A D G B E

riff1
|-------------------------------------------------------------------|
|-------------------------------------------------------------------|
|--------------------8------/7--------------------------------------|
|-3-/5-----3/5-------6------/5----------3/5--------3/5--------------|
|-1-/3-----1/3--------------------------1/3--------1/3----6-----/5--|
|---------------------------------------------------------6-----/5--|

riff2
|-------------------------------------------------------------------|
|-------------------------------------------------------------------|
|-------------------------------------------------------------------|
|-7--------8--8/5--5/8----------------------------------------------|
|-5--------6--6/3--3/6----------------------------------------------|
|-------------------------------------------------------------------|

end of riff2
|-------------------------------------------------------------------|
|-------------------------------------------------------------------|
|-------------------------------------------------------------------|
|-7---let ring------------------------------------------------------|
|-5-----------------------------------------------------------------|
|-------------------------------------------------------------------|

riff3
|-------------------------------------------------------------------|
|-------------------------------------------------------------------|
|-4/5--4------------4/5--4--------------5--5------------------------|
|-4/5--4------------4/5--4-----3-3------5--5------------------------|
|-2/3--2----2^--2---2/3--2-----3-3------3--3------------------------|
|------------------------------1-1----------------------------------|

riff4
|-------------------------------------------------------------------|
|-------------------------------------------------------------------|
|--------5-------------5-------------5------------------------------|
|-2------3-------2-----3--------2----3-------2-2--4/5/4-4--5--4-3---|
|-0--------------0--------------0------------0-0--2/3/2-2--3--2-1---|
|-------------------------------------------------------------------|

end of riff4
|-------------------------------------------------------------------|
|-------------------------------------------------------------------|
|-------------------------------------------------------------------|
|-2--let ring-------------------------------------------------------|
|-0-----------------------------------------------------------------|
|-------------------------------------------------------------------|

it goes like this:
riff1
riff2
riff1
riff2
end of riff2
riff3
riff4
riff3
riff4
end of riff4

any questions?e-mail me.
END

  Visit MetalTabs.com for more metal tablature

bottom separator

Contact Us | Privacy Policy | Disclaimer | Legal Notice
Copyright © 2001-2014 MetalTabs.com. All Rights Reserved.