top separator

Home

Forum

What's New

Submit a Tab

FAQ

Links

Contact Us

Link to Us

MetalTabs.com logo

Bands

0-9

A

B

C

D

E

F

G

H

I

J

K

L

M

N

O

P

Q

R

S

T

U

V

W

X

Y

Z

Search

What

Where
 

Lacrimas Profundere - "Sarah Lou" Bass Tab

Plain Text Version
More Lacrimas Profundere Tabs

Hits: 2512
Rated: 5.00 out of 5 (1 vote)
Updated: 2006-06-09 22:05:13

 

By:

GeCkO

sendpm.gif

email.gif

Important note
This tab is available online because we obtained explicit permission from Lacrimas Profundere or their label.


#----------------------------------PLEASE NOTE---------------------------------#
#This file is the author's own work and represents their interpretation of the #
#song. You may only use this file for private study, scholarship, or research. #
#Unless specified otherwise, this is NOT an official tab from the band members.#
#------------------------------------------------------------------------------#

  Visit MetalTabs.com for more metal tablature
  
Band:  Lacrimas Profundere
Album: Ave end (2004)
Song:  Sarah Lou
Tabbed by: Gecko ( gecko@osopanda.com )
5 string bass standard tunning (BEADG)

Copyright (c)  (Napalm Records (USA)) (2004)
Version 1.0 - (01/04/2006)

Please comment

Intro
G|----------------------------------|
D|----------------------------------|
A|----------------------------------|
E|--0------5-------0--------5-------|
B|----------------------------------|

Chorus
G|----------------------------------------------------------------|
D|----------------------------------------------------------------|
A|----------------------------------------------------------/7-77-|
E|--5-5555-55-5555-----------------5-5555-55-5555--3-333-0--------|
B|------------------3-3333-33-3333--------------------------------|

Verse                Verse end
G|----------------||----------------|
D|----------------||----------------|
A|----------------||--/7-5---5-7----|
E|--555-3-5-xx-1*-||-------7-----7--|
B|----------------||----------------|

Inderlude
G|----------------------------------|
D|----------------------------------|
A|----------------------------------|
E|--(55)5-7-5-8--8-7-10--(10-9)-12--|
B|----------------------------------|

Bridge
G|----------------------------------|
D|----------------------------------|
A|----------------------------------|
E|---555--777--3*-------------------|
B|----------------5*----------------|

End
G|--------|
D|--------|
A|--------|
E|--5555--|
B|--------|

Structure
Intro     x1
Chorus    x2
Verse     x3
Verse end x1
verse     x3
verse end x1
Chorus    x2
Verse     x3
Verse end x1
verse     x3
verse end x1
Chorus    x2
Interlude x2
Bridge    x2
Chorus    x4 (last one with a little variation on timing)
End       x1
Outro (Piano)

  Visit MetalTabs.com for more metal tablature

bottom separator

Contact Us | Privacy Policy | Disclaimer | Legal Notice
Copyright © 2001-2014 MetalTabs.com. All Rights Reserved.