#----------------------------------PLEASE NOTE---------------------------------#
#This file is the author's own work and represents their interpretation of the #
#song. You may only use this file for private study, scholarship, or research. #
#Unless specified otherwise, this is NOT an official tab from the band members.#
#------------------------------------------------------------------------------#

  Visit MetalTabs.com for more metal tablature
  
Band:Torture Killer, the split cd wiht Sotajumala!
Album:SOTAJUMALA / TORTURE KILLER SPLIT 7"
Song:Day Of Cadaver
Copyright  Torture Killer.com
Name:Daniel Myrholt
E-mail:Aylar_666@hotmail.com
d-tuning (whole step down from E)

\:Slide down
/:slide up
.:palm mut

Riff 1. (opening kick...)
D--------------------------------------------------------
G--------------------------------------------------------
C--------------------------------------------------------
F--6--7--5--6--------------------------------------------
A--4--5--3--4--------------------------------------------
D--4--5--3--4--------------------------------------------

D--------------------------------------------------------
G--------------------------------------------------------
C--------------------------------------------------------
F--6x----------------------------------------------------
A--4x----------------------------------------------------
D--4x----------------------------------------------------


riff 2. (main verse riff) listen tape for palm muting

D--------------------------------------------------------
G--------------------------------------------------------
C-------3------------------------------------------------
F-3-----3----2-----3--4---------5--4--3--4---------------
A-3-----1----2-----3--4---------5--4--3--4---------------
D-1-0-0---x--0--x--1--2--0-0-0--3--2--1--2---------------
    . .                  . . .

D--------------------------------------------------------
G--------------------------------------------------------
C--------------------------------------------------------
F-------------------------------7--8--6--7---------------
A--beginning of the riff--------5--6--4--5---------------
D-- same as above---------------5--6--4--5---------------


riff 3. (chorus)

D------------------------------------------------------
G------------------------------------------------------
C------------------------------------------------------
F-2-2--7--8_------------3/4----2-2--7--8-------7-/-6---
A-2-2--7--8_------------3/4----2-2--7--8-------5-/-4---
D-0-0--5--6_------------1/2----0-0--5--6-------5-/-4---
  . .                          . .

D--------------------------------------------------------
G--------------------------------------------------------
C--------------------------------------------------------
F--------------------------------2-2--7--8--2-3-2-7-6x---
A-(same as above)----------------2-2--7--8--2-3-2-5-4x---
D--------------------------------0-0--5--6--0-1-0-5-4x---
                                 . .         . . .


riff 4a. (mid section) 4 times

D--------------------------------------------------------
G--------------------------------------------------------
C--------------------------------------------------------
F------7--8-------3--4-------7\6-------------------------
A------7--8-------3--4-------7\6-------------------------
D-0-0--5--6--0-0--1--2--0-0--5\4-------------------------
  . .        . .        . .

riff 4b, 2 times
D--------------------------------------------------------
G--------------------------------------------------------
C--------------------------------------------------------
F------7--8-------3--4-------7\6-------------------------
A------5--6-------1--2-------5\4-------------------------
D-0-0--5--6--0-0--1--2--0-0--5\4-------------------------
  . .        . .        . .

riff 4c, play 4a once then...
D--------------------------------------------------------
G--------------------------------------------------------
C--------------------------------------------------------
F------7--8-------3--4--7-8-6-7--------------------------
A------7--8-------3--4--5-6-4-5--------------------------
D-0-0--5--6--0-0--1--2--5-6-4-5--------------------------
Enjou!

  Visit MetalTabs.com for more metal tablature