top separator

Home

Forum

FAQ

Contact Us

Link to Us

MetalTabs.com logo

Bands

0-9

A

B

C

D

E

F

G

H

I

J

K

L

M

N

O

P

Q

R

S

T

U

V

W

X

Y

Z

Absu - "Highland Tyrant Attack" Guitar Tab

Plain Text Version
More Absu Tabs

Hits: 972
Updated: 2006-06-07 21:13:41

By:

travI56669


#----------------------------------PLEASE NOTE---------------------------------#
#This file is the author's own work and represents their interpretation of the #
#song. You may only use this file for private study, scholarship, or research. #
#Unless specified otherwise, this is NOT an official tab from the band members.#
#------------------------------------------------------------------------------#

  Visit MetalTabs.com for more metal tablature
  
Band:  Absu
Album: The Third Storm Of CythrŠul
Song:  Highland Tyrant Attack
Osmose 1997
Version 1.0 - 4/10/06
Transcribed By: travI56669
Email:          marilynmaggot@yahoo.com
.  - palm mute           /  - slide up to
\  - slide down to       ~  - vibrato
h  - hammer on           b  - Bend
p  - pull off            Suffixes for bend
t  - tap                 f  - full bend    h - half bend
ph - pinched harmonic    q  - quarter bend t - tap bend
*  - see comment         ^  - Hold bend    r release bend
x  - Stuccatto           ~  - vibrato bend
,  - slight palm mute    () - ghost note, sustained note
"  - tremolo note        <> - Trill
Tuning E

|---------------------------------------|
|---------------------------------------|
|----------------------------7---5------|
|----------------------------7---5---7--|
|-9--99-7--9--99-7--9--99-7--5---3---7--|
|-7--77-7--7--77-7--7--77-7----------5--|

Guitar II
|-------------------------------------------|* - 1st
|-------------------------------------------|time only
|----------------------------7---5----------|
|----------------------------7---5---7--*---|
|----------------------------5---3---7--9---|
|------------------------------------5--7---|

|---------------------------------------|
|---------------------------------------|
|----------------------------7---5------|
|-9--99-7--9--99-7--9--99-7--5---3---7--|
|-7--77-7--7--77-7--7--77-7----------5--|
|---------------------------------------|

|--------------------------------|   |------------|
|--------------------------------|   |------------|
|--------------------------------|   |------------|
|-9--9"-9--7/10-10"---12--10--7--|   |-12--10--7--|
|-7--7"-7--5/-8--8"---10---8--5--|   |-10---8--5--|
|--------------------------------|   |------------|

|-------------------------------------------------------------|
|-------------------------------------------------------------|
|-------------------------------------------------------------|
|-9---------------10--------------9--------------5-5-5-7-7-7--|
|-7----------------8--------------7--------------3-3-3-5-5-5--|
|----000000000000----000000000000---000000000000--------------|

Guitar II
|-------------------------------------------------------------|
|-------------------------------------------------------------|
|-------------------------------------------------------------|
|-9---------------10--------------9--------------5-5-5-7-7-7--|
|-7----------------8--------------7--------------3-3-3-5-5-5--|
|-------------------------------------------------------------|

Keyboard part
|-------------------------|
|-------------------------|
|-9----7----5----9---10---|
|-9----7----5----9---10---|
|-7----5----3----7----8---|
|-------------------------|

|----------------------------------------------------|
|----------------------------------------------------|
|----------------------------------------------------|
|-------9-9-9-------9/10-10-------9-9-9-------5/7-7--|
|-------7-7-7-------7/-8--8-------7-7-7-------3/5-5--|
|-0-0-0-------0-0-0---------0-0-0-------0-0-0--------|

|---------------------------------------------------|
|---------------------------------------------------|
|-9-9-9-7/9-9-9-9-9-10\9-9-9-9-9-7/9-9-9\7-7-7\5-5--|
|-7-7-7-5/7-7-7-7-7--8\7-7-7-7-7-5/7-7-7\5-5-5\3-3--|
|---------------------------------------------------|
|---------------------------------------------------|

|-----------------------------|   |--------|--------|
|-----------------------------|   |--------|--------|
|-4---------------------------|   |--------|--------|
|-2-----------7-7-7-10-10-10--|   |--10"---|---9"---|
|-2-----------5-5-5--8--8--8--|   |---8"---|---7"---|
|-0---------------------------|   |--------|--------|

END

  Visit MetalTabs.com for more metal tablature

bottom separator

Contact Us | Privacy Policy | Disclaimer
Copyright © 2001-2014 MetalTabs.com. All Rights Reserved.