top separator

Home

Forum

What's New

Submit a Tab

FAQ

Links

Contact Us

Link to Us

MuSpy.com

MetalTabs.com logo

Bands

0-9

A

B

C

D

E

F

G

H

I

J

K

L

M

N

O

P

Q

R

S

T

U

V

W

X

Y

Z

Search

What

Where
 

Falconer - "The Coronation" Guitar Tab

Plain Text Version
More Falconer Tabs

Hits: 2360
Rated: 3.00 out of 5 (1 vote)
Updated: 2006-06-07 21:12:19

 

By:

Daniil

sendpm.gif

email.gif

Important note
This tab is available online because we obtained explicit permission from Falconer or their label.


#----------------------------------PLEASE NOTE---------------------------------#
#This file is the author's own work and represents their interpretation of the #
#song. You may only use this file for private study, scholarship, or research. #
#Unless specified otherwise, this is NOT an official tab from the band members.#
#------------------------------------------------------------------------------#

  Visit MetalTabs.com for more metal tablature
  
FALCONER-The Coronation
The Sceptre Of Deception-2003
Copyright Metal Blade Records
Transcribed by Daniil Laletin
e-mail: dlaletin@mail.ru
version 1.0 February 2006

All corrections are welcome.

 " - tremolo
 / - slide down
 \ - slide up
 . - palm mute
 ~ - long sound
 x - rest
 p - pull off
 h - hammer on
 tr - trill
 () - ghost note, sustained note
 * - artificial harmonics
 b - bend

 Tuning from low to high: D G C F A D

================================

 Intro
|-----------------------------------------|
|-8p5---7p4---------------8p5---7p4---5~--|
|-----5-----4-----------------5-----4-----|
|-----------------------------------------|gtr 1
|-----------------------------------------|
|-----------------------------------------|
|
|-------------7p5-------------------------|
|-----------------7-4-5-7-----------------|
|-----------------------------------------|
|-----------------------------------------|gtr 2
|-----------------------------------------|
|-----------------------------------------|


 Fill 1
|-----------|
|-----------|
|-----------|
|-------9\--|both
|-------7\--|
|-0-000-----|



 Riff 1
|------------------------------------------------------------------|
|------------------------------------------------------------------|
|------------------------------------------------------------------|
|-------9---------------------9--------7-5-----5---2---4-5-4-2-----|both
|-------7------------5--------7------------7---3---0---2-3-2-0-5-4-|
|-0-000----0-000-5-7----0-000----0-000-------------------------3-2-|
                                                       . . . . . .

 first ending
|-------------------------------------------------|
|-----------------------------------5---------4-7-|
|-----------4---------4-7---------5-------5-4-----|
|-------2-5---------5-----------7-----4-7---------|gtr 1
|-------------------------------------------------|
|-0-000-------0-000-------0-000-------------------|
|
|-------------------------------------------------|
|-------------------------------------------------|
|-------------------------------------------------|
|-------------------------------------------4-----|gtr 2
|-------2-----------5-----------7-----4-----2-----|
|-0-000-0-----0-000-3-----0-000-5-----2-----------|

 second ending
|-------------|
|-------------|
|-------------|
|-0-2---4-0-4-|both
|-0-2-3-4-0-4-|
|-.-.-3-.-.-.-|
      .

 Riff 2
|-------------------------------------------------|
|-------------------------------------------------|
|-------------------------------------------------|
|-----------------7-777-7-7-7-7---9-999-9-9-9-9---|both
|-5-555-5-5-5-5---5-555-5-5-5-5---7-777-7-7-7-7---|
|-3-333-3-3-3-3---5-555-5-5-5-5---7-777-7-7-7-7---|
        . . .           . . .           . . .
|------------------------------------------------------|
|------------------------------------------------------|
|------------------------------------------------------|
|-5--555--------7--777----------5--555----------2-3-4--|both
|-3--333-5--555-5--555-2--222---3--333-5--555-5-0-1-2--|
|-3--333-3--333-5--555-0--000---3--333-3--333-3-.-.-.--|
                                              .
|-------------|
|-------------|
|-------------|
|-----5--7--9-|both
|-\---3--5--7-|
|-\---3--5--7-|



 Riff 3
|---------------------------------------------5-----|
|---------------------------5---7-8-7-5-4---7---8-7-|
|-----------------------------5-----------4---------|
|---------------------5-4-7-------------------------|gtr 1
|--------7-6-9--------------------------------------|
|-000000-------000000-------------------------------|
|
|---------------------------------------------------|
|---------------------------------------------------|
|---------------------------------------------------|
|---------------------------5-----------4-----------|gtr 2
|--------7-6-9--------7-6-9-3-----------2-----------|
|-000000-------000000-------------------------------|


|-----------------------------------7-5-3----------|
|---------------------5-4-7-5-5h7h8-------7-5-4-5--|
|-444444-4-5---444444------------------------------|
|------------7-------------------------------------|gtr 1
|--------------------------------------------------|
|--------------------------------------------------|
|
|--------------------------------------------------|
|--------------------------------------------------|
|--------------------------------------------------|
|---------------------5-4-7-5-------------------9--|gtr 2
|--------7-6-9--------------3-------5-----9-----7--|
|-000000-------000000---------------3-----7--------|



 Riff 4
|----------------------------------------------|
|----------------------------------------------|
|-------0-2-4-5-4-2-0-2-4-------0-2-4-5-4-2-4--|
|-2-222-------------------2-222----------------|gtr 1
|-.-...-------------------.-...----------------|
|----------------------------------------------|
|
|----------------------------------------------|
|----------------------------------------------|
|----------------------------------------------|
|-------2-----------------------5--------------|gtr 2
|-------2-----------------------5--------------|
|-0-000-0-----------------3-333-3--------------|

|--------------------7~----7-5-7-/11-7-5-------|
|-7-777-7-5-7-8--7-----------------------8-7---|
|-.-...--------------------------------------8-|
|----------------------------------------------|gtr 1
|----------------------------------------------|
|----------------------------------------------|
|
|----------------------------------------------|
|----------------------------------------------|
|-------7------------------4-------------------|
|-------7------------------4-------------------|gtr 2
|-5-555-5------------2-222-2-------------------|
|----------------------------------------------|



 Riff 5
|-------------------------------------------------|
|-------------------------------------------------|
|-4-----------4-----2-4-5-4-----------4-----2-4-5-|
|---222-2-2-2---222---------222-2-2-2---222-------|gtr 1
|---...-.-.-.---...---------...-.-.-.---...-------|
|-------------------------------------------------|
|
|-------------------------------------------------|
|-------------------------------------------------|
|-------------------4-----------------------4-----|
|-------------------2-----------------------2-----|gtr 2
|-2-----------2-----------2-----------2-----------|
|-0-000-0-0-0-0-000-------0-000-0-0-0-0-000-------|
    ... . . .   ...         ... . . .   ...
|-------------------------------------------------|
|-------------------------------------------------|
|-4-----------4-----2-4-5-4-2---2-----------------|
|---555-5-5-5---555-----------5---5-4-5-4-2-4-2-0-|gtr 1
|---...-.-.-.---...-------------------------------|
|-------------------------------------------------|
|
|-------------------------------------------------|
|-------------------------------------------------|
|---------------11-7-11-----------------/11-11----|
|----------------9-5--9-----------------/-9--9----|gtr 2
|-5-----------5-----------7-----------9-----------|
|-3-333-3-3-3-3-----------5-555-5-5-5-7-----------|



 Riff 6 - solo
|---------------------7---------------------7-|
|-7h8~--7h8p7p5---5-8---7h8~--7h8p7p5---5-8---|
|---------------7---------------------7-------|
|---------------------------------------------|gtr 1
|---------------------------------------------|
|---------------------------------------------|
|
|---------------------------------------------|
|---------------------------------------------|
|-------------------4---------------------4---|
|-------------------2---------------------2---|gtr 2
|-2-----------2---------2-----------2---------|
|-0-000-0-0-0-0-000-----0-000-0-0-0-0-000-----|


|-------------------------------|
|-10-12-8-10-7-8-10-12-8-10-7-8-|
|-------------------------------|
|-------------------------------|gtr 1
|-------------------------------|
|-------------------------------|
|
|-------------------------------|
|-------------------------------|
|--------------------11-7-11----|
|---------------------9-5--9----|gtr 2
|-5--------------5--------------|
|-3----333-3-3-3-3--------------|


|-10-12-15-/18-15-12----------12~-|
|--------------------12-10--------|
|--------------------------12-----|
|---------------------------------|gtr 1
|---------------------------------|
|---------------------------------|
|
|---------------------------------|
|---------------------------------|
|----------------------/11-11-----|
|----------------------/-9--9-----|gtr 2
|-7---------------9---------------|
|-5----555-5-5-5--7---------------|

|-7-0"-5-0"-3-0"-2-0"-/7-3h5p3p0-----------------|
|----------------------------------5-7h8p7p5---5-|
|--------------------------------4-----------7---|
|------------------------------------------------|gtr 1
|------------------------------------------------|
|------------------------------------------------|
|
|------------------------------------------------|
|------------------------------------------------|
|-------------------4------------------------4---|
|-------------------2------------------------2---|gtr 2
|-2-----------2------------2-----------2---------|
|-0-000-0-0-0-0-000--------0-000-0-0-0-0-000-----|


|-7----5------------/7-3h5p3p0-------7-7-12-11~--|
|-----------7----8~------------3-5-8-------------|
|---7"---7"---7"---------------------------------|
|------------------------------------------------|gtr 1
|------------------------------------------------|
|------------------------------------------------|
|
|------------------------------------------------|
|------------------------------------------------|
|---------------11-7-11----------------/11-11----|
|----------------9-5--9----------------/-9--9----|gtr 2
|-5-----------5---------7------------9-----------|
|-3-333-3-3-3-3---------5-555-5-5-5--7-----------|



 Riff 7
|-12~~-----15-14-15-12~~------------------------------------|
|----------17-15-13-12~~------------------------------------|
|-----------------------------------------------------------|
|-----------------------------------------------------------|gtr 1
|-----------------------------------------------------------|
|-----------------------------------------------------------|
|
|-----------------------------------------------------------|
|-----------------------------------------------------------|
|-----------------------------------------------------------|
|-5---------------------------------------------------------|gtr 2
|-3---------------------2--2-2-2-2-x---5--2--2-2-2-2-x---5--|
|-3---------------------0--0-0-0-0-x-0-5--0--0-0-0-0-x-0-5--|
                           . . . .           . . . .
|-12\--------------------------------|
|-12\--------------------------------|
|------------------------------------|
|------------------------------------|gtr 1
|------------------------------------|
|------------------------------------|
|
|------------------------------------|
|------------------------------------|
|------------2--2-2-2-2--4--4-4-4-4--|
|-5----------2--2-2-2-2--4--4-4-4-4--|gtr 2
|-3----------0--0-0-0-0--2--2-2-2-2--|
|-3-------------.-.-.-.-----.-.-.-.--|

Second time play it without gtr 1


 Riff 8
|-8-8h10p8-5-7-8---------8-8h10p8-5-7-8-8/12-12~-|
|----------------9~--5~--------------------------|
|------------------------------------------------|
|------------------------------------------------|gtr 1
|------------------------------------------------|
|------------------------------------------------|
|
|------------------------------------------------|
|------------------------------------------------|
|------------------------------------------------|
|----------------------------------5----5/9------|gtr 2
|-7---------7----5---2---7---------3----3/7------|
|-5---5555--5----3---0---5---5555----------------|
      ....                   ....

|-8-8h10p8-5-7-8-----------------------------------------------|
|----------------8~--5~--8p5---7p4---------------8p5---7p4---5-|
|----------------------------5-----4-----------------5-----4---|
|--------------------------------------------------------------|gtr 1
|--------------------------------------------------------------|
|--------------------------------------------------------------|
|
|------------------------------------7p5-----------------------|
|----------------------------------------7-4-5-7---------------|
|--------------------------------------------------------------|
|--------------------------------------------------------------|gtr 2
|-7---------7----5---2-----------------------------------------|
|-5---5555--5----3---0-----------------------------------------|
      ....

  Visit MetalTabs.com for more metal tablature

bottom separator

Contact Us | Privacy Policy | Disclaimer | Legal Notice
Copyright © 2001-2014 MetalTabs.com. All Rights Reserved.