top separator

Home

Forum

What's New

Submit a Tab

FAQ

Links

Contact Us

Link to Us

MetalTabs.com logo

Bands

0-9

A

B

C

D

E

F

G

H

I

J

K

L

M

N

O

P

Q

R

S

T

U

V

W

X

Y

Z

Search

What

Where
 

Dirty Rotten Imbeciles - "Beneath The Wheel" Guitar Tab

Plain Text Version
More Dirty Rotten Imbeciles Tabs

Hits: 9953
Rated: 5.00 out of 5 (4 votes)
Updated: 2006-06-07 21:05:53

 

By:

crowley_67

sendpm.gif

email.gif

Important note
This tab is available online because we obtained explicit permission from Dirty Rotten Imbeciles or their label.


#----------------------------------PLEASE NOTE---------------------------------#
#This file is the author's own work and represents their interpretation of the #
#song. You may only use this file for private study, scholarship, or research. #
#Unless specified otherwise, this is NOT an official tab from the band members.#
#------------------------------------------------------------------------------#

  Visit MetalTabs.com for more metal tablature
  
Dirty Rotten Embeciles
Thrash Zone
Beneath The Wheel

Copyright (c)  Restless Records 1989

Transcribed By:40oz
crowley_67@yahoo.com


---------------------------------------------------------------------|
---------------------------------------------------------------------|
---------------------------------------------------------------------|
---------------------------------------------------------------------|
-2-----3-----5-----7-----5---5---5---------5\4-------5\4---4\3---3-5-|
-0-000-1-000-3-0-0-5-0-0-3-x-3-x-3--0-0-0--3\2--0-0--3\2-0-2\1-0-1-3-|


                                                                    2x
---------------------------------------------------------------------|
---------------------------------------------------------------------|
---------------------------------------------------------------------|
---------------------------------------------------------------------|
-2-----3-----5-----7-----5---5---5---------5\4-------5\4---4\3---3-5-|
-0-0-0-1-0-0-3-0-0-5-0-0-3-x-3-x-3--0-0-0--3\2--0-0--3\2-0-2\1-0-1-3-|




-----------------------------------------------------------|
-----------------------------------------------------------|
-----------------------------------------------------------|
-----------------------------------------------------------|
-2-----3-----5-----5-----5\4---4\3-----3-----3-------------|
-0-0-0-1-0-0-3-0-0-3-0-0-3\2-0-2\1-1-1-1-1-1-1-1-1-1-1-1-1-|



---------------------------------------------------------------|
---------------------------------------------------------------|
---------------------------------------------------------------|
---------------------------------------------------------------|
-2-----3-----5-----5-----5\4---4\3-----3-----3---5\4---4\3---4-|
-0-0-0-1-0-0-3-0-0-3-0-0-3\2-0-2\1-1-1-1-1-1-1-0-3\2-0-2\1-0-2-|



                                                                   2x
---------------------------------------------------------------------|
---------------------------------------------------------------------|
---------------------------------------------------------------------|
---------------------------------------------------------------------|
-2-----3-----5-----7-----5---5---5---------5\4-------5\4---4\3---3-5-|
-0-0-0-1-0-0-3-0-0-5-0-0-3-x-3-x-3--0-0-0--3\2--0-0--3\2-0-2\1-0-1-3-|




------------------------|
------------------------|
------------------------|
-2------(2)-------------|
-2------(2)-----3--4--3-|
-0------(0)-----1--2--1-|


                                                              2x
---------------------------------------------------------------|
---------------------------------------------------------------|
---------------------------------------------------------------|
-2-------2-------2-------------------2-------2-------2---------|
-2-------2-------2-------3-----3-----2-------2-------2-------3-|
-0--0-0--0--0-0--0--0-0--1--0--1--0--0--0-0--0--0-0--0--0-0--1-|



---------------------------------------------------------------------|
---------------------------------------------------------------------|
---------------------------------------------------------------------|
---------------------------------------------------------------------|
-2---------------------3-3-2----------------------5-5-4------4-----4-|
-0-0-0-0-0-0-0-0-0-0-0-1-1-0--0-0-0-0-0-0-0-0-0-0-3-3-2--2-2-2-2-2-2-|



------------------------------------------------------------------------|
------------------------------------------------------------------------|
------------------------------------------------------------------------|
-----------------------------------2------------------------------------|
-----5-5--2-----------3----3----3--2-----b----3-3-2----b~~-5-5-4------4-|
-2-2-3-3--0-0-0-0-0-0-1-00-1-00-1--0-x-/-14---1-1-0--x-2---3-3-2--2-2-2-|





-----------------------------------------------|
-----------------------------------------------|
-----------------------------------------------|
-----------------------------------------------|
-----4-----5-5--2-------------5\4---5\4---5--5-|
-2-2-2-2-2-3-3--0-0-0-0-0-0-0-3\2-0-3\2-0-3--3-|



-----------|
-----------|
-----------|
-2---5-----|
-0---3---4-|
---------2-|


*BASS*
-----------------------------------------------------------------------|
----------updated soon-------------------------------------------------|
-----------------------------------------------------------------------|
-----------------------------------------------------------------------|




---------------------------------------------------------|
---------------------------------------------------------|
---------------------------------------------------------|
-2-----5---------4-----2----5----------------------------|
-0-----3----6----2-----0----3----6------6------6-6-6-6-6-|
------------4--------------------4--4-4-4--4-4-4-4-4-4-4-|


                             6x
------------------------------|----------------------------------------|
------------------------------|----------------------------------------|
------------------------------|----------------------------------------|
-4-------4-------5-------5-3--|-4-------4-------3-------3--------------|
-2-2-2-2-2-2-2-2-3-3-3-3-3-1--|-2-2-2-2-2-2-2-2-1-1-1-1-1--3-3-3-3-3-3-|
------------------------------|----------------------------1-1-1-1-1-1-|


                          4x
---------------------------|
---------------------------|
---------------------------|
---------------------------|
-2---------------------3-3-|
-0-0-0-0-0-0-0-0-0-0-0-1-1-|



---------------------------------------------------------------------|
---------------------------------------------------------------------|
---------------------------------------------------------------------|
---------------------------------------------------------------------|
-2---------------------3-3-2----------------------5-5-4------4-----4-|
-0-0-0-0-0-0-0-0-0-0-0-1-1-0--0-0-0-0-0-0-0-0-0-0-3-3-2--2-2-2-2-2-2-|



------------------------------------------------------------------------|
------------------------------------------------------------------------|
------------------------------------------------------------------------|
-----------------------------------2------------------------------------|
-----5-5--2-----------3----3----3--2-----b----3-3-2----b~~-5-5-4------4-|
-2-2-3-3--0-0-0-0-0-0-1-00-1-00-1--0-x-/-14---1-1-0--x-2---3-3-2--2-2-2-|



-----------------------------------------------|
-----------------------------------------------|
-----------------------------------------------|
-----------------------------------------------|
-----4-----5-5--2-------------5\4---5\4---5--5-|
-2-2-2-2-2-3-3--0-0-0-0-0-0-0-3\2-0-3\2-0-3--3-|



-----------|
-----------|
-----------|
-2---5-----|
-0---3---4-|
---------2-|


*BASS*
-----------------------------------------------------------------------|
----------updated soon-------------------------------------------------|
-----------------------------------------------------------------------|
-----------------------------------------------------------------------|




              hold bend.........&.release
--------------------------------------------------------|
--------------b----T-----T-----T-----T------------------|
--------------4---10--4--9--4--7--4--7--4--2----2-------|
-2---5---------------------------------------4-----4--2-|
-0---3--(4)---------------------------------------------|
--------(2)---------------------------------------------|




-----------------b------b------b-------b----------------------------|
--------------------14-----14------14-----14-17-14------------------|
-----------------16-----16-----16------16-----------16-14-16-14-----|
-2---5----------------------------------------------------------16\-|
-0---3---4----------------------------------------------------------|
---------2----------------------------------------------------------|


with solo                         8x
-----------------------------------|
-----------------------------------|
-----------------------------------|
-2----5----------------------------|
-0----3----6-----------------------|
-----------4-4-4-4-4-4-4-4-4-4-4-4-|


*SOLO*
------------------------------------------------------------------------|
-b/a.h.----------------------------------------------b------------------|
-4------2----------------------------------------2-4-4-4--2---------2--~|
----------4-2-4---2--p-p--------------2----2-4--------------4-2--2-4--4-|
--------------------4-2-0--4----4-2-0----4------------------------------|
------------------------------------------------------------------------|



-----------------------------------14----b------------------p----------|
-----------------------------b--14----14-17-14--14---14---17-14-14-14--|
------------------14------14-16-----------------16b--16b-----------16b-|
-/16--16-16-14-16------16----------------------------------------------|
-----------------------------------------------------------------------|
-----------------------------------------------------------------------|


                                                                 b
------------------p-------p--------p-------p-------p------14-17-17-|
-17-14-17-14----17-14---17-14----17-14---17-14---17-14-------------|
------------15-------15------15-------15------15------15-----------|
-------------------------------------------------------------------|
-------------------------------------------------------------------|
-------------------------------------------------------------------|



-17-14----b----------------------------------------------b----------|
-------17-17-14--b--17-17--b-p-------14-----14-----14-16-16-------14|
-----------------16-16-16--16-14-----14-----14-----14-16-16p14----14|
---------------------------------16------16-----16-------------16---|
--------------------------------------------------------------------|
--------------------------------------------------------------------|



--------------b--------------b-------------------------|
-2---2----2-4-4----2-----2-4-4-4-2---------------------|
-2---2----2-4-4p2--2-----2-4-4-4-2---------------------|
---4----4--------4-----4-----------4---4-2-------------|
-------------------------------------------4-2-4-2-----|
---------------------------------------------------5-2-|


*solo rythm still chugging away*



---------------------------------------------------------|
---------------------------------------------------------|
---------------------------------------------------------|
-2-----5---------4-----2----5----------------------------|
-0-----3----6----2-----0----3----6------6------6-6-6-6-6-|
------------4--------------------4--4-4-4--4-4-4-4-4-4-4-|



                            6x
------------------------------|---------------------|
------------------------------|---------------------|
------------------------------|---------------------|
-4-------4-------5-------5-3--|-4-----3-------------|
-2-2-2-2-2-2-2-2-3-3-3-3-3-1--|-2-----1-----3--4--3-|
------------------------------|-------------1--2--1-|



                                                              2x
---------------------------------------------------------------|
---------------------------------------------------------------|
---------------------------------------------------------------|
-2-------2-------2-------------------2-------2-------2---------|
-2-------2-------2-------3-----3-----2-------2-------2-------3-|
-0--0-0--0--0-0--0--0-0--1--0--1--0--0--0-0--0--0-0--0--0-0--1-|



---------------------------------------------------------------------|
---------------------------------------------------------------------|
---------------------------------------------------------------------|
---------------------------------------------------------------------|
-2---------------------3-3-2----------------------5-5-4------4-----4-|
-0-0-0-0-0-0-0-0-0-0-0-1-1-0--0-0-0-0-0-0-0-0-0-0-3-3-2--2-2-2-2-2-2-|



------------------------------------------------------------------------|
------------------------------------------------------------------------|
------------------------------------------------------------------------|
-----------------------------------2------------------------------------|
-----5-5--2-----------3----3----3--2-----b----3-3-2----b~~-5-5-4------4-|
-2-2-3-3--0-0-0-0-0-0-1-00-1-00-1--0-x-/-14---1-1-0--x-2---3-3-2--2-2-2-|





-----------------------------------------------|
-----------------------------------------------|
-----------------------------------------------|
-----------------------------------------------|
-----4-----5-5--2-------------5\4---5\4---5--5-|
-2-2-2-2-2-3-3--0-0-0-0-0-0-0-3\2-x-3\2-x-3--3-|



-----------|
-----------|
-----------|
-2---5-----|
-0---3---4-|
---------2-|


*BASS*
-----------------------------------------------------------------------|
----------updated soon-------------------------------------------------|
-----------------------------------------------------------------------|
-----------------------------------------------------------------------|



---------|
---------|
---------|
-2---5---|
-0---3---|
---------|


                                                  3x
---------------------------------------------------|
---------------------------------------------------|
---------------------------------------------------|
---------------------------------------------------|
-4------4-5--4------4-3--4------4-5-2--------------|
-2--2-2-2-3--2--2-2-2-1--2--2-2-2-3-0--0-0-0-0-0-0-|



--------------------------------------------------------|
--------------------------------------------------------|
--------------------------------------------------------|
----------------------------2---------------------------|
-2-------------------3-3-3--2---b----3-3-2--b~~-3-3-3-2-|
-0-0-0-0-0-0-0-0-0-0-1-1-1--0-/-14---1-1-0--2---1-1-1-0-|



-----------------------------|--------|---------------------------|
-----------------------------|--------|---------------------------|
-----------------------------|--------|---------------------------|
-----------------------------|--------|---------------------------|
-----------------------3-3-2-|--------|-3-3-2---------------------|
-0-0-0-0-0-0-0-0-0-0-0-1-1-0-|--------|-1-1-0-0-0-0-0-0-0-0-0-0-0-|



------------------------------|
------------------------------|
------------------------------|
------------------------------|
-5-5-4------4-----4-----5-5-2-|
-3-3-2--2-2-2-2-2-2-2-2-3-3-0-|

  Visit MetalTabs.com for more metal tablature

bottom separator

Contact Us | Privacy Policy | Disclaimer | Legal Notice
Copyright © 2001-2014 MetalTabs.com. All Rights Reserved.