top separator

Home

Forum

What's New

Submit a Tab

FAQ

Links

Contact Us

Link to Us

MuSpy.com

MetalTabs.com logo

Bands

0-9

A

B

C

D

E

F

G

H

I

J

K

L

M

N

O

P

Q

R

S

T

U

V

W

X

Y

Z

Search

What

Where
 

Dirty Rotten Imbeciles - "Abduction" Guitar Tab

Plain Text Version
More Dirty Rotten Imbeciles Tabs

Hits: 3171
Rated: 5.00 out of 5 (1 vote)
Updated: 2006-06-07 21:06:04

 

By:

crowley_67

sendpm.gif

email.gif

Important note
This tab is available online because we obtained explicit permission from Dirty Rotten Imbeciles or their label.


#----------------------------------PLEASE NOTE---------------------------------#
#This file is the author's own work and represents their interpretation of the #
#song. You may only use this file for private study, scholarship, or research. #
#Unless specified otherwise, this is NOT an official tab from the band members.#
#------------------------------------------------------------------------------#

  Visit MetalTabs.com for more metal tablature
  
Dirty Rotten Embeciles
Abduction
Thrash Zone

Copyright (c)  Restless Records 1989


Transcribed By: 40oz
crowley_67@yahoo.com


.  - palm mute           /  - slide up to
\  - slide down to       ~  - vibrato
h  - hammer on           b  - Bend
p  - pull off            Suffixes for bend
t  - tap                 f  - full bend    h - half bend
ph - pinched harmonic    q  - quarter bend t - tap bend
*  - see comment         ^  - Hold bend    r release bend
x  - Stuccatto           ~  - vibrato bend
,  - slight palm mute    () - ghost note, sustained note
"  - tremolo note        <> - Trill

Intro
---------------------------------------------------------------|
---------------------------------------------------------------|
-5---4------4---3------2---------------------------------------|
---------5---------4------3---5---3---2------7--5--4--3---(3)--|
-----------------------------------------3---5--3--2--1---(1)--|
---------------------------------------------------------------|


                   3x                  *last time
------------------------|--------------------------------|
------------------------|--------------------------------|
------------------------|--------------------------------|
-----------------3------|---------------------2----(2)---|
-2------3---2----1------|------2------3---2---2----(2)---|
-0--0-0-1-0-0-0---------|------0--0-0-1-0-0-0-0----(0)---|


*BASS*                                                          2x
------------------------------------------------------------------|
------------------------------------------------------------------|
------------------------------------------------------------------|
-0-0-0-0-1-0-3-0-1-1-1-1-1-1-3-0--0-0-0-0-1-0-3-0-1-1-1-1-1-1-1-1-|



w/bass         3rd time                 4th time
-----------------------|------------------------|
-----------------------|------------------------|
-----------------------|------------------------|
-----------------------|------------------------|
-2----------5--3-------|--------2---------------|
-0----------3--1-------|--------0---------------|


                                                              2x
-----------------------------------------------------------------|
-----------------------------------------------------------------|
-----------------------------------------------------------------|
-----------------------------------------------------------------|
-2-------2---5---3------3---5---2-------2---5---3----------------|
-0--0-0--0-0-3-0-1--1-1-1-0-3-0-0--0-0--0-0-3-0-1--1-1-1-1-1-1---|




----------------------------------------------------------------|
----------------------------------------------------------------|
----------------------------------------------------------------|
-------------------------3--------------------------------------|
-2------3---2-2------3---1---------2------3---2-2------3---3----|
-0--0-0-1-0-0-0--0-0-1-0-----------0--0-0-1-0-0-0--0-0-1-0-1----|




----------------------------------------------------------------|
----------------------------------------------------------------|
----------------------------------------------------------------|
-------------------------3--------------------------------------|
-2------3---2-2------3---1---------2------3---------------------|
-0--0-0-1-0-0-0--0-0-1-0-----------0--0-0-1-0-1-1-1-1-1-1-------|



                                                              2x
-----------------------------------------------------------------|
-----------------------------------------------------------------|
-----------------------------------------------------------------|
-----------------------------------------------------------------|
-2-------2---5---3------3---5---2-------2---5---3----------------|
-0--0-0--0-0-3-0-1--1-1-1-0-3-0-0--0-0--0-0-3-0-1--1-1-1-1-1-1---|



----------------------------------------------------------------|
----------------------------------------------------------------|
----------------------------------------------------------------|
-------------------------3--------------------------------------|
-2------3---2-2------3---1---------2------3---2-2------3---3----|
-0--0-0-1-0-0-0--0-0-1-0-----------0--0-0-1-0-0-0--0-0-1-0-1----|




----------------------------------------------------------------|
----------------------------------------------------------------|
----------------------------------------------------------------|
-------------------------3--------------------------------------|
-2------3---2-2------3---1---------2------3---------------------|
-0--0-0-1-0-0-0--0-0-1-0-----------0--0-0-1-0-1-1-1-1-1-1-------|



                                                              2x
-----------------------------------------------------------------|
-----------------------------------------------------------------|
-----------------------------------------------------------------|
-----------------------------------------------------------------|
-2-------2---5---3------3---5---2-------2---5---3----------------|
-0--0-0--0-0-3-0-1--1-1-1-0-3-0-0--0-0--0-0-3-0-1--1-1-1-1-1-1---|


  w/bass
|--------------------------|
|--------------------------|
|--------------------------|
|-2-------------(2)--------|
|-2-------------(2)--------|
|-0-------------(0)--------|
|
|
| bass
|--------------------------------------------------------------------|
|--------------------------------------------------------------------|
|--------------------------------------------------------------------|
|--0-0-0-1-0-0-0--0-0-0-0-0-0-0-0--0-0-0-1-0-0-3-0-0-3-0-0-3\2-0-2---|



(bass continued )                           guitar in
---------------------------------------------------------------------|
---------------------------------------------------------------------|
---------------------------------------------------------------------|
--0-0-0-1-0-0-0--0-0-0-0-0-0-0-0--0-0-0-1-0-0-3-0-0-3-0-0-3\2-0-2----|



----------------|
----------------|
----------------|
----------------|
-5----5---------|
-3----3---------|



                                                                       4x
--------------------------------------------------------------------------|
--------------------------------------------------------------------------|
--------------------------------------------------------------------------|
--------------------------------------------------------------------------|
--2-----3-----2-------------------2-----3-----5-----5-----5\4---4---------|
--0-0-0-1-0-0-0--0-0-0-0-0-0-0-0--0-0-0-1-0-0-3-0-0-3-0-0-3\2-0-2---------|



-----------------------------|
-----------------------------|
-----------------------------|
-------------2---------(2)---|
-2-----3-----2---------(2)---|
-0-0-0-1-0-0-0---------(0)---|




*BASS*                         2x
-----------------------------------------------------------------|
-----------------------------------------------------------------|
-----------------------------------------------------------------|
-0-0-0-0-1-0-3-0-1-1-1-1-1-1-3-0-0-0-0-0-1-0-3-0-1-1-1-1-1-1-1-1-|



w/bass         3rd time          4th time
-----------------------|------------|
-----------------------|------------|
-----------------------|------------|
-----------------------|------------|
-2----------5--3-------|--------2---|
-0----------3--1-------|--------0---|


~SOLO~
 dive w/bar                          tremelo  bar    acrobatics
--nh----------------------------------------------------------------|
--3-----------------------------------------------------------------|
-----------------------------------/9--/9----------/14---/14----/14-|
--------------------------------------------------------------------|
--------------------------------------------------------------------|
-----------------------0------(0)-----------------------------------|



-----------------------------------------------------------------------|
---------------------------------------------------13--15--17--15--17--|
-----------------------------12-----12--15--12--15---------------------|
---------------------14--15------15------------------------------------|
---------12--14--15----------------------------------------------------|
-12--14----------------------------------------------------------------|


                                                          bend w/bar
-----------------------------18--19--18--18--20--21--20--22---------|
-18--17--15--17--18--20--21-----------------------------------------|
--------------------------------------------------------------------|
--------------------------------------------------------------------|
--------------------------------------------------------------------|
--------------------------------------------------------------------|




                            4x
-------------------------------|---------------------------|
-------------------------------|---------------------------|
-------------------------------|---------------------------|
-----------------------------3-|---(3)----5--4--2----------|
-2-------3----2--2-------3---1-|---(1)----3--2--0--4--3----|
-0--0-0--1-0--0--0--0-0--1-0---|-------------------2--1----|



----------------------------------------------------------------|
----------------------------------------------------------------|
----------------------------------------------------------------|
-------------------------3--------------------------------------|
-2------3---2-2------3---1---------2------3---2-2------3---3----|
-0--0-0-1-0-0-0--0-0-1-0-----------0--0-0-1-0-0-0--0-0-1-0-1----|




----------------------------------------------------------------|
----------------------------------------------------------------|
----------------------------------------------------------------|
-------------------------3--------------------------------------|
-2------3---2-2------3---1---------2------3---------------------|
-0--0-0-1-0-0-0--0-0-1-0-----------0--0-0-1-0-1-1-1-1-1-1-------|



                                                              2x
-----------------------------------------------------------------|
-----------------------------------------------------------------|
-----------------------------------------------------------------|
-----------------------------------------------------------------|
-2-------2---5---3------3---5---2-------2---5---3----------------|
-0--0-0--0-0-3-0-1--1-1-1-0-3-0-0--0-0--0-0-3-0-1--1-1-1-1-1-1---|



----------------------------------------------------------------|
----------------------------------------------------------------|
----------------------------------------------------------------|
-------------------------3--------------------------------------|
-2------3---2-2------3---1---------2------3---2-2------3---3----|
-0--0-0-1-0-0-0--0-0-1-0-----------0--0-0-1-0-0-0--0-0-1-0-1----|




----------------------------------------------------------------|
----------------------------------------------------------------|
----------------------------------------------------------------|
-------------------------3--------------------------------------|
-2------3---2-2------3---1---------2------3---------------------|
-0--0-0-1-0-0-0--0-0-1-0-----------0--0-0-1-0-1-1-1-1-1-1-------|



                                                              2x
-----------------------------------------------------------------|
-----------------------------------------------------------------|
-----------------------------------------------------------------|
-----------------------------------------------------------------|
-2-------2---5---3------3---5---2-------2---5---3----------------|
-0--0-0--0-0-3-0-1--1-1-1-0-3-0-0--0-0--0-0-3-0-1--1-1-1-1-1-1---|



------------|
------------|
------------|
-2----------|
-2----------|
-0----------|

  Visit MetalTabs.com for more metal tablature

bottom separator

Contact Us | Privacy Policy | Disclaimer | Legal Notice
Copyright © 2001-2014 MetalTabs.com. All Rights Reserved.