top separator

Home

Forum

What's New

Submit a Tab

FAQ

Links

Contact Us

Link to Us

MetalTabs.com logo

Bands

0-9

A

B

C

D

E

F

G

H

I

J

K

L

M

N

O

P

Q

R

S

T

U

V

W

X

Y

Z

Search

What

Where
 

Warlock - "Three Minute Warning" Guitar Tab

Plain Text Version
More Warlock Tabs

Hits: 2753
Rated: 5.00 out of 5 (1 vote)
Updated: 2006-06-07 21:00:53

 

By:

sendpm.gif

email.gif

Important note
We did our best to reach Warlock and ask for their permission to publish this tab. Unfortunately they did not respond to our requests or we could not find a way to contact them. This tab is available online until Warlock tells us to take it down.


#----------------------------------PLEASE NOTE---------------------------------#
#This file is the author's own work and represents their interpretation of the #
#song. You may only use this file for private study, scholarship, or research. #
#Unless specified otherwise, this is NOT an official tab from the band members.#
#------------------------------------------------------------------------------#

  Visit MetalTabs.com for more metal tablature
  
Copyright (c)   Phonogram (1987)
Version 1.0 - 2006-3-24

Transcribed By: Benjamin Gheysels
Email:          benjamingheysels@hotmail.com


.  - palm mute           /  - slide up to
\  - slide down to       ~  - vibrato
h  - hammer on           b  - Bend
p  - pull off            Suffixes for bend
t  - tap                 f  - full bend    h - half bend
ph - pinched harmonic    q  - quarter bend t - tap bend
*  - see comment         ^  - Hold bend    r release bend
x  - Stuccatto           ~  - vibrato bend
,  - slight palm mute    () - ghost note, sustained note
"  - tremolo note        <> - Trill
ps - pick scrape

Tuning E A D G B E

Riff 1: play 2 times. Palm muting only second time. Guitar 1 adds lead at the
       * mark
|---------------------------|
|--------------------*------|
|---------------------------|
|---2-----------------------|
|---2------4------6---------|
|---0------2------4--4-4-4--|
                     . . .
lead
|-----------------------------9h11-11hold----p9p7p4hold---|
|----------7hold---11-9hold-------------------------------|
|---6-6---------------------------------------------------|
|---------------------------------------------------------|
|---------------------------------------------------------|
|---------------------------------------------------------|


Riff 2: Guitar 1 adds leads at the * marks. Don't play chord between brackets

   play this 3 times      then this
|---------------------|-----------------------------------------|
|---------------------|-----------------------------------**----|
|---------------*-----|-----------------------------------------|
|---2-----------------|--2-------2-------2-------2--------8-8---|
|---2--(4)--6---------|--2-------2-------2-------2--------6-6---|
|---0--(2)--4--4-4-4--|--0--0-0--0--0-0--0--0-0--0--0-0---------|
               . . .        . .     . .     . .     . .

first * lead    second * lead          ** lead
|-------------|---16~ --11h14h15h16--|------------16~ --|
|-------------|----------------------|------------------|
|-------------|----------------------|---------13-------|
|---4b--------|----------------------|---13-16----------|
|-------------|----------------------|------------------|
|-------------|----------------------|------------------|


Riff 2: now play the chord between brackets and play different leads

     first * lead    second * lead          ** lead
|------------------|---14p13p12---------|---16~ -\4--|
|------------6h7b--|------------14hold--|------------|
|--4h6--4h6--------|--------------------|------------|
|------------------|--------------------|------------|
|------------------|--------------------|------------|
|------------------|--------------------|------------|


Riff 3: chorus
|---------------------------------------16~ ----------------|
|-----------------------------------------------------------|
|-----------------------------------------------------------|
|--------------4----------------------4-------2-----4--4----|
|---6-----4----2------------6----4----2-------2-----2--1----|
|---4-----2-------2-2-2-----4----2------------0-------------|
                  . . .

|-------------------------------------------------|
|-------------------------------------------------|
|-------------------------------------------------|
|--------------4----------------------4----8-8----|
|---6-----4----2------------6----4----2----6-6----|
|---4-----2-------2-2-2-----4----2----------------|
                  . . .


Riff 2: different leads

     first * lead     second * lead    ** lead
|--------------------|---11-11~ b---|---16~ -----|
|------------12612~ -|--------------|------------|
|--9~ -9~ -----------|--------------|------------|
|--------------------|--------------|------------|
|--------------------|--------------|------------|
|--------------------|--------------|------------|


Riff 3: chorus
|---------------------------------------16b16~ ----------------|
|--------------------------------------------------------------|
|--------------------------------------------------------------|
|--------------4----------------------4----------2-----4--4----|
|---6-----4----2------------6----4----2----------2-----2--1----|
|---4-----2-------2-2-2-----4----2---------------0-------------|
                  . . .

|-----------------11-14-11-16~ -----------------------------|
|-----------------------------------------------------------|
|-----------------------------------------------------------|
|--------------4--------------------------------4----8-8----|
|---6-----4----2----------------------6----4----2----6-6----|
|---4-----2-------2-2-2---------------4----2----------------|
                  . . .


Solo: play this riff as background
|---------------------------------------------------------------|
|---------------------------------------------------------------|
|---------------------------------------------------------------|
|---9--8--7--4--8-----2-------------2--4--8-----4----6----8-----|
|---7--6--4--2--6-----2---4---6-----2--2--6--4--2----4----6-----|
|---------------------0---2---4-----0--------2------------------|


Riff 2': no leads this time
|---------------------------------|
|---------------------------------|
|---------------------------------|
|---2----------2--2--2--2---8-8---|
|---2---6------2--2--2--2---6-6---|
|---0---4------0--0--0--0---------|


Riff 3:
|---------------------------------------11-14-11-16~ --------------|
|------------------------------------------------------------------|
|------------------------------------------------------------------|
|--------------4----------------------4--------------2-----4--4----|
|---6-----4----2------------6----4----2--------------2-----2--1----|
|---4-----2-------2-2-2-----4----2-------------------0-------------|
                  . . .

|-----------------11-14-15-16~ -----------------------------|
|-----------------------------------------------------------|
|-----------------------------------------------------------|
|--------------4------------------------------------4--6----|
|---6-----4----2----------------------6----------6----------|
|---4-----2-------2-2-2---------------4----4--7-------------|
                  . . .

That's it! Enjoy!

  Visit MetalTabs.com for more metal tablature

bottom separator

Contact Us | Privacy Policy | Disclaimer | Legal Notice
Copyright © 2001-2014 MetalTabs.com. All Rights Reserved.