top separator

Home

Forum

What's New

Submit a Tab

FAQ

Links

Contact Us

Link to Us

MetalTabs.com logo

Bands

0-9

A

B

C

D

E

F

G

H

I

J

K

L

M

N

O

P

Q

R

S

T

U

V

W

X

Y

Z

Search

What

Where
 

Warlock - "Touch Of Evil" Guitar Tab

Plain Text Version
More Warlock Tabs

Hits: 2663
Updated: 2006-06-07 20:58:10

 

By:

sendpm.gif

email.gif

Important note
We did our best to reach Warlock and ask for their permission to publish this tab. Unfortunately they did not respond to our requests or we could not find a way to contact them. This tab is available online until Warlock tells us to take it down.


#----------------------------------PLEASE NOTE---------------------------------#
#This file is the author's own work and represents their interpretation of the #
#song. You may only use this file for private study, scholarship, or research. #
#Unless specified otherwise, this is NOT an official tab from the band members.#
#------------------------------------------------------------------------------#

  Visit MetalTabs.com for more metal tablature
  
Copyright (c)   Phonogram (1987)
Version 1.0 - 2006-3-23

Transcribed By: Benjamin Gheysels
Email:          benjamingheysels@hotmail.com


.  - palm mute           /  - slide up to
\  - slide down to       ~  - vibrato
h  - hammer on           b  - Bend
p  - pull off            Suffixes for bend
t  - tap                 f  - full bend    h - half bend
ph - pinched harmonic    q  - quarter bend t - tap bend
*  - see comment         ^  - Hold bend    r release bend
x  - Stuccatto           ~  - vibrato bend
,  - slight palm mute    () - ghost note, sustained note
"  - tremolo note        <> - Trill
ps - pick scrape

Tuning E A D G B E

Riff 1: play 2 times
|------------------------|
|------------------------|
|------------------------|
|------------------------|
|---5----------7---4-----|
|---3----------5---2-----|

Riff 2: play 2 times
|-----------------------------|
|-----------------------------|
|-----------------------------|
|-------------------2---------|
|-------4-----5---------------|
|---2-2---2-2---2-2---2-5-0---|
    . .   . .   . .   , , ,

Riff 3
   play this 2 times       then this   then this 3 times       then this
|--------------------------|--------|--------------------------|----------|
|--------------------------|--------|--------------------------|----------|
|--------------------------|--------|--------------------------|----------|
|-----------------2--------|--------|-----------------2--------|----------|
|-----4-----5--------------|-5----7-|-----4-----5--------------|-5----7---|
|-2-2---2-2---2-2---2-5-0--|-3----5-|-2-2---2-2---2-2---2-5-0--|-3----5---|
  . .   . .   . .   , , ,             . .   . .   . .   , , ,

then this once
|----------------------------|
|----------------------------|
|----------------------------|
|-----------------2----------|
|-----4-----5----------------|
|-2-2---2-2---2-2---2-5-0----|
  . .   . .   . .   , , ,

Riff 4
|--------------------------------|
|--------------------------------|
|--------------------------------|
|---6------7------9------7--6----|
|---4------5------7------5--4----|
|--------------------------------|


Riff 5: Guitar 1 adds leads at the * marks (see below)
        (chord between brackets only first time)

  play this 4 times         then this            then this two times
|-------------------*-----|--------------------|--------------------------|
|-------------------------|--------------------|--------------------------|
|-------------------2-----|--------------------|-------------------2------|
|-------------------2--2--|--7----6----7----9--|-------------------2--(2)-|
|------4-----5------0--2--|--5----4----5----7--|------4-----5------0--(2)-|
|--2-2---2-2---2-2-----0--|--------------------|--2-2---2-2---2-2-----(0)-|
   . .   . .   . .                                . .   . .   . .

 then this
|----------|
|----------|
|----------|
|---7--6---|
|---5--4---|
|----------|

lead:
first lead                    second lead
|---------------------------|--14~ ---------------------|
|---------------------------|-------12h14~ -10h12p10~ --|
|-----------5b-4~ ----------|---------------------------|
|---4~ -7~ --------7~ -4~ --|---------------------------|
|---------------------------|---------------------------|
|---------------------------|---------------------------|


Riff 6: play 2 times. Guitar 1 adds leads at the * marks (see below)

  play this 2 times            this once      then this 3 times
|--*-------------------------|--------------|--*------------------------|
|----------------------------|--------------|---------------------------|
|-------------------2--------|--------------|------------------2--------|
|-------4-----5--------------|--9--7--6-----|------4-----5--------------|
|---2-2---2-2---2-2---2-5-0--|--7--5--4--5--|--2-2---2-2---2-2---2-5-0--|
|----------------------------|-----------3--|---------------------------|
    . .   . .   . .   , , ,                    . .   . .   . .   , , ,

 then this once   then this once
|---------------|---------------------------|
|---------------|---------------------------|
|---------------|------------------2--------|
|---9--7--6--5--|------4-----5--------------|
|---7--5--4--5--|--2-2---2-2---2-2---2-5-0--|
|---------------|---------------------------|
                   . .   . .   . .   , , ,

leads:
first lead   second lead     third lead (not sure about this one)
|---13r--|-----------------|--20r----------|
|--------|--12-------------|---------------|
|--------|-----9-----------|---------------|
|--------|-------12-9hold--|---------------|
|--------|-----------------|---------------|
|--------|-----------------|-------1/7\1---|

Riff 7
|-----------------------------|
|-----------------------------|
|-----------------------------|
|---------------------7-------|
|---4-----5-----7-----5--7----|
|---2-----3-----5--------5----|

Riff 6': play 4 times
|---*-------------------|
|-----------------------|
|-----------------------|
|-------4-----5---7-----|
|---2-2---2-2-----5--7--|
|--------------------5--|
    . .   . .

leads:
first lead                 second lead (wrong!)
|------------------------|--19~ --------------------|
|-----------6b-5---------|-------15-17~ --15h17p15--|
|---4~ -7~ ------7~ -4~ -|--------------------------|
|------------------------|--------------------------|
|------------------------|--------------------------|
|------------------------|--------------------------|

Riff 8
|--------------------------|
|--------------------------|
|--------------------------|
|--------------------------|
|---5-----4-----5-----7----|
|---3-----2-----3-----5----|

Riff 9: play this 2 times
|-----------------------------------------------------------|
|-----------------------------------------------------------|
|-------------------2---------------------------2-----------|
|-------4-----5---------------------------------2---4-------|
|---2-2---2-2---2-2---2-5-0--------4-----5------0---2---4---|
|------------------------------2-2---2-2---2-2----------2---|
    . .   . .   . .   , , ,    . .   . .   . .

Riff 10
|-----------------------------------------------|
|-----------------------------------------------|
|-----------------------------------------------|
|-----------------------------------------------|
|-----2-5-4~ -----4-5-2~ -----2-5-4~ -----------|
|---3-----------5-----------3-----------0-2-3---|

Riff 7'
|---------------------------------------|
|---------------------------------------|
|---------------------------------------|
|---------------------7-----------------|
|---4-----5-----7-----5--7---4-4-4------|
|---2-----3-----5--------5---2-2-2stop--|

Riff 6: play 4 times

Riff 8

Riff 6: play 7 times. After the 6th time, Guitar 1 adds this lead:
|----------------------------------|
|----------------------------------|
|---10-9-7-10-9-7---10-9-7-7hold---|
|----------------------------------|
|----------------------------------|
|----------------------------------|

Riff 11
|--------------------------------|
|--------------------------------|
|--------------------------------|
|-----------4---6---7---9---11---|
|---5---7---2---4---5---7----9---|
|---3---5------------------------|

Riff 2': play this 4 times
|--------------------------------------------------------|
|--------------------------------------------------------|
|------------------------------------------------2-------|
|-------------------2----------------------------2---2---|
|-------4-----5--------------------4-----5-------0---2---|
|---2-2---2-2---2-2---2-5-0----2-2---2-2---2-2-------0---|
    . .   . .   . .   , , ,    . .   . .   . .

That's it! Enjoy!

  Visit MetalTabs.com for more metal tablature

bottom separator

Contact Us | Privacy Policy | Disclaimer | Legal Notice
Copyright © 2001-2014 MetalTabs.com. All Rights Reserved.