top separator

Home

Forum

What's New

Submit a Tab

FAQ

Links

Contact Us

Link to Us

MetalTabs.com logo

Bands

0-9

A

B

C

D

E

F

G

H

I

J

K

L

M

N

O

P

Q

R

S

T

U

V

W

X

Y

Z

Search

What

Where
 

Fuck... I'm Dead - "Slowly Raped With A Chainsaw" Guitar Tab

Plain Text Version
More Fuck... I'm Dead Tabs

Hits: 2302
Updated: 2008-10-07 05:36:00

 

By:

Licky Webster

sendpm.gif

email.gif

Important note
This tab is available online because we obtained explicit permission from Fuck... I'm Dead or their label.


#----------------------------------PLEASE NOTE---------------------------------#
#This file is the author's own work and represents their interpretation of the #
#song. You may only use this file for private study, scholarship, or research. #
#Unless specified otherwise, this is NOT an official tab from the band members.#
#------------------------------------------------------------------------------#

  Visit MetalTabs.com for more metal tablature
  
Fuck... I'm Dead
Bring On The Dead
Slowly Raped With A Chainsaw

Copyright (c)  Razorback Records 2001
Version 1.1 - 28.9.2008

Transcribed By: Yaniv Dekel
Email:          lickywester@yahoo.com


.  - palm mute           /  - slide up to
/  - slide down to       ~  - vibrato
h  - hammer on           b  - Bend
p  - pull off            Suffixes for bend
t  - tap                 f  - full bend    h - half bend
ph - pinched harmonic    q  - quarter bend t - tap bend
*  - see comment         ^  - Hold bend    r release bend
x  - Stuccatto           ~  - vibrato bend
,  - slight palm mute    () - ghost note, sustained note
"  - tremolo note        <> - Trill

Tuning is C# with drop B

* = Left channel only



Intro x1
|--------|
|--------|
|--------|
|--------|
|--7-----|
|--7-----|
   .

Riff A x2
|------------------------------------|
|------------------------------------|
|------------------------------------|
|----------9-9-7-7-------------------|
|------8-8---------10-10-8-8-7-7-----|
|--7-7---------------------------8-8-|

Passage 1 x1
|-------------------------------|
|--------------*******----------|
|--------------4-4-4-4----------|
|--------------3-3-3-3----ph----|
|--2--3--2----------------3qb---|
|--2--3--2-------------5--------|
                       .

Riff B1 x1
|----------------------------------|
|----------------------------------|
|----------------------------------|
|----------------------------------|
|------------------2-2-------------|
|--2-2-3-3-2-2-3-3-----3-3-6-6-5-5-|

Riff B2 x1
|--------------------------------|
|--------------------------------|
|--------------------------------|
|--------------------------------|
|------------------2-2-----8--4--|
|--2-2-3-3-2-2-3-3-----3-3-8--4--|
                           .  .

Riff B1 x2

Riff B end x1
|------------|
|------------|
|------------|
|------------|
|-2----------|
|-2----------|


Riff A x4

Passage 3 x1
   |--3--|  |--3--|
|-------------------------------------|
|-------------------------------------|
|----------------------------5--------|
|----------------------------3--------|
|--*******************-------2--------|
|--2--2--2--3--3--3--2----------------|
   .  .  .  .  .  .  .

Riff B1 x1
Riff B2 x1 (dont pm the chords this time)
Riff B1 x2

Passage 4 x1
|--------------------|
|--------------------|
|-----------5--------|
|-----------3--------|
|--2--------1--------|
|--2-----------------|

Riff C x4
   |--3--|  |--3--|
|-------------------------------------------|
|--------------------------*******----------|
|--------------------------4-4-4-4----------|
|--------------------------3-3-3-3----ph----|
|-------------------------------------3qb---|
|--2--2--2--3--3--3--2-------------5--------|
   .  .  .  .  .  .  .             .

END

  Visit MetalTabs.com for more metal tablature

bottom separator

Contact Us | Privacy Policy | Disclaimer | Legal Notice
Copyright © 2001-2014 MetalTabs.com. All Rights Reserved.