top separator

Home

Forum

FAQ

Contact Us

Link to Us

MetalTabs.com logo

Bands

0-9

A

B

C

D

E

F

G

H

I

J

K

L

M

N

O

P

Q

R

S

T

U

V

W

X

Y

Z

Cannibal Corpse - "The Time to Kill Is Now" Guitar Tab

Plain Text Version
More Cannibal Corpse Tabs

Hits: 8739
Rated: 4.25 out of 5 (4 votes)
Updated: 2006-06-06 10:26:37

By:

Robbie Filth


#----------------------------------PLEASE NOTE---------------------------------#
#This file is the author's own work and represents their interpretation of the #
#song. You may only use this file for private study, scholarship, or research. #
#Unless specified otherwise, this is NOT an official tab from the band members.#
#------------------------------------------------------------------------------#

  Visit MetalTabs.com for more metal tablature
  
Band: Cannibal Corpse
Album: Kill
Song: The Time to Kill Is Now
Record Label: MetalBlade
Tuning: G# C# F# B D# G#
Tabbed by: Robert Fretwell

--------------------------------------------------------------------------
--------------------------------------------------------------------------
--------------------------------------------------------------------------
-------------------10/11--------------------------------------------------
-9-7777-99--55-7-7--8/-9-777---------7-7-999---6-------------11-11-11-11--
-7-5555---88---5-5-------555----X3---5-5-----8---8-5-6-6-6-6--------------
   pm..        pm.       ...           . .     . . . . trem..............

-----------------------------------------------------------------------------
-----------------------------------------------------------------------------
-----------------------------------------------------------------------------
-------------------10/11---------------------------------5555----5555----5555
-9-7777-99--55-7-7--8/-9-777---------7-7-999---6-----------------------------
-7-5555---88---5-5-------555----X3---5-5-----8---8-5-6666----6666----6666----
   pm..        pm.       ...           . .     . . . . trem....................

-------------------------------------------------------------------------------
-------------------------------------------------------------------------------
-------------------------------------------------------------------------------
---------------6-----8---------------6-----8--------5-5-5---7\6---------5-5-5--
---------------4-----6---------------4-----6------7---------5\4-8-----7--------
-4-0-0-0-7-4-0---0-0---4-0-0-0-7-4-0---0-0---0-00---------0-----6-0-0----------
 pm. . . . . .   . .   . . . . . . .  . .   . .. trem... .       . . trem....
------------
------------
------------
---7\6------
---5\4-8----
-0-----6-0--Continued From Above
 .       .

-------------------------------------------------------------------------------
-------------------------------------------------------------------------------
-------------------------------------------------------------------------------
---------------6-----8---------------6-----8--------5-5-5---7\6---------5-5-5--
---------------4-----6---------------4-----6------7---------5\4-8-----7--------
-4-0-0-0-7-4-0---0-0---4-0-0-0-7-4-0---0-0---0-00---------0-----6-0-0----------
 pm. . . . . .   . .   . . . . . . .  . .   . .. trem... .       . . trem....
------------
------------
------------
---7\6------
---5\4-8----
-0-----6-0--Continued From Above
 .       .

--------------------------------------------------------------------------
--------------------------------------------------------------------------
--------------------------------------------------------------------------
-------------------10/11--------------------------------------------------
-9-7777-99--55-7-7--8/-9-777---------7-7-999---6-------------11-11-11-11--
-7-5555---88---5-5-------555----X3---5-5-----8---8-5-6-6-6-6--------------
   pm..        pm.       ...           . .     . . . . trem..............

-----------------------------------------------------------------------------
-----------------------------------------------------------------------------
-----------------------------------------------------------------------------
-------------------10/11---------------------------------5555----5555----5555
-9-7777-99--55-7-7--8/-9-777---------7-7-999---6-----------------------------
-7-5555---88---5-5-------555----X3---5-5-----8---8-5-6666----6666----6666----
   pm..        pm.       ...           . .     . . . . trem....................


-------------------------------------------------------------------------------
-------------------------------------------------------------------------------
-------------------------------------------------------------------------------
---------------6-----8---------------6-----8--------5-5-5---7\6---------5-5-5--
---------------4-----6---------------4-----6------7---------5\4-8-----7--------
-4-0-0-0-7-4-0---0-0---4-0-0-0-7-4-0---0-0---0-00---------0-----6-0-0----------
 pm. . . . . .   . .   . . . . . . .  . .   . .. trem... .       . . trem....
------------
------------
------------
---7\6------
---5\4-8----
-0-----6-0--Continued From Above
 .       .

-------------------------------------------------------------------------------
-------------------------------------------------------------------------------
-------------------------------------------------------------------------------
---------------6-----8---------------6-----8--------5-5-5---7\6---------5-5-5--
---------------4-----6---------------4-----6------7---------5\4-8-----7--------
-4-0-0-0-7-4-0---0-0---4-0-0-0-7-4-0---0-0---0-00---------0-----6-0-0----------
 pm. . . . . .   . .   . . . . . . .  . .   . .. trem... .       . . trem....

--------------------------------------------------
--------------------------------------------------
--------------------------------------------------
---7\6---------5-5-5---7\6---------5-5-5---7\6----
---5\4-8-----7---------5\4-8-----7---------5\4-8--
-0-----6-0-0---------0-----6-0-0---------0-----6--
pm       . . trem... .       . . trem... .

---------------------------------------------------------------
---------------------------------------------------------------
---------------------------------------------------------------
-----------------------------7-------10------------------------
-9-----5-6-------------9-------9--------9-----5-6--------------
---8-7-----6-8-6-8-6-8---8-7-----8-7------8-7-----6-8-6-8-6-8--
 trem..... pm  .   . . trem......................pm   .   . .

--------------------------------------------------------------------------------
--------------------------------------------------------------------------------
--------------------------------------------------------------------------------
-------7-------10-----------------------------7-------10------------------------
-9-------9--------9-----5-6-------------9-------9--------9-----5-6--------------
---8-7-----8-7------8-7-----6-8-6-8-6-8---8-7-----8-7------8-7-----6-8-6-8-6-8--
 trem......................pm   .   . . trem......................pm   .   . .

------------------------------------------------
--------------------------------------------ph---
--------------------------------------ph-----^---
-------7-------10----------------------^-----3---
-9-------9---------5-2-3-2---2---------4---------
---8-7-----8-7-------------1---3-3-4-4---000-----
 trem............pm. . . . . . . . . .   ...

----------------------------------------------------------
--------------------------ph--------------------------ph--
--------------------ph-----^--------------------ph-----^--
---------------------^-----3---------------------^-----3--
-5-2-3-2---2---------4-------5-2-3-2---2---------4--------
---------1---3-3-4-4---000-----------1---3-3-4-4---000----x3
 pm. . . . . . . . .   ...   . . . . . . . . . .   ...


--------------------------------------------
--------------------------ph------------ph--
--------------------ph-----^--------ph---^--
---------------------^-----3--ph-----^---7--
-5-2-3-2---2---------4---------^-----6------
---------1---3-3-4-4---000---0-5-0-0---0----
 . . . . . . . . . .   ...   .   . .   .

-----------------------------------------------------
------------ph-------------ph--------------------ph--
--------ph---^---------ph---^----------------ph---^--
--ph-----^---7---ph-----^---7----------ph-----^---7--
---^-----6--------^-----6---------------^-----6------
-0-5-0-0---0----0-5-0-0---0------X3---0-5-0-0---0----
 .   . .   .    .   . .   .

-------------------------------------------------------------------------------
-------------------------------------------------------------------------------
-------------------------------------------------------------------------------
---------------6-----8---------------6-----8--------5-5-5---7\6---------5-5-5--
---------------4-----6---------------4-----6------7---------5\4-8-----7--------
-4-0-0-0-7-4-0---0-0---4-0-0-0-7-4-0---0-0---0-00---------0-----6-0-0----------
 pm. . . . . .   . .   . . . . . . .  . .   . .. trem... .       . . trem....
------------
------------
------------
---7\6------
---5\4-8----
-0-----6-0--Continued From Above
 .       .

-------------------------------------------------------------------------------
-------------------------------------------------------------------------------
-------------------------------------------------------------------------------
---------------6-----8---------------6-----8--------5-5-5---7\6---------5-5-5--
---------------4-----6---------------4-----6------7---------5\4-8-----7--------
-4-0-0-0-7-4-0---0-0---4-0-0-0-7-4-0---0-0---0-00---------0-----6-0-0----------
 pm. . . . . .   . .   . . . . . . .  . .   . .. trem... .       . . trem....

----------------------------------------------------
----------------------------------------------------
----------------------------------------------------
---7\6---------5-5-5---7\6---------5-5-5---7\6------
---5\4-8-----7---------5\4-8-----7---------5\4-8-2--
-0-----6-0-0---------0-----6-0-0---------0-----6-0--
pm       . . trem... .       . . trem... .


THE END



any corrections mail them to: septic_flesh241@hotmail.com

  Visit MetalTabs.com for more metal tablature

bottom separator

Contact Us | Privacy Policy | Disclaimer
Copyright © 2001-2014 MetalTabs.com. All Rights Reserved.