top separator

Home

Forum

What's New

Submit a Tab

FAQ

Links

Contact Us

Link to Us

MetalTabs.com logo

Bands

0-9

A

B

C

D

E

F

G

H

I

J

K

L

M

N

O

P

Q

R

S

T

U

V

W

X

Y

Z

Search

What

Where
 

Fuck... I'm Dead - "Horrendous Bowel Evacuation" Guitar Tab

Plain Text Version
More Fuck... I'm Dead Tabs

Hits: 2655
Rated: 5.00 out of 5 (1 vote)
Updated: 2007-06-24 23:37:35

 

By:

Licky Webster

sendpm.gif

email.gif

Important note
This tab is available online because we obtained explicit permission from Fuck... I'm Dead or their label.


#----------------------------------PLEASE NOTE---------------------------------#
#This file is the author's own work and represents their interpretation of the #
#song. You may only use this file for private study, scholarship, or research. #
#Unless specified otherwise, this is NOT an official tab from the band members.#
#------------------------------------------------------------------------------#

  Visit MetalTabs.com for more metal tablature
  
Fuck... I'm Dead
Fuck...I'm Dead/Engorged Split
Horrendous Bowel Evacuation

Copyright (c)  No Escape Records 2002
Version 1.0 - 3.4.2006

Transcribed By: Yaniv D
Email:          cannibalcorpse@walla.com


.  - palm mute           /  - slide up to
  - slide down to       ~  - vibrato
h  - hammer on           b  - Bend
p  - pull off            Suffixes for bend
t  - tap                 f  - full bend    h - half bend
ph - pinched harmonic    q  - quarter bend t - tap bend
*  - see comment         ^  - Hold bend    r release bend
x  - Stuccatto           ~  - vibrato bend
,  - slight palm mute    () - ghost note, sustained note
"  - tremolo note        <> - Trill

Tuning is C# with drop B

0:00
|Right channel (R):
|-------------------------------------------------------------------|
|-------------------------------------------------------------------|
|-------------------------------------------------------------------|
|-------------------------------------------------------------------|
|-5-------------------------------5---------------------------------|
|-5-------------------------------5---------------19\---------------|
|
|Left Channel (L):
|-------------------------------------------------------------------|
|-------------------------------------------------------------------|
|-------------------------------------------------------------------|
|---7-----8-------------------------7-----8-------------------------|
|-5---6-5---6-5-4-5---------------5---6-5---6-5-4-5-----------------|
|-5-----------------8-7-8-5-7-4---5-----------------8-7-8-5-7-4-----|

0:07
|R
|---------------------------------|
|---------------------------------|
|---------------------------------|
|---------------------------------|
|-----------------------------4---|
|-555555555-55554-5-5555555-7-4---|
| ........  ....    ......
|L
|---------------------------------|
|---------------------------------|
|---------------------------------|
|---7-----8-----------------------|
|-5---6-5---6-5-4-5-----------4---|
|-5-----------------8-7-8-5-7-4---|

0:22
|R
|-------------------------------------------------------------------|
|-------------------------------------------------------------------|
|-------------------------------------------------------------------|
|---7-----8-------------------------7-----8-------------------------|
|-----6-5---6-5-4-5-------------------6-5---6-5-4-5-----------------|
|-5-----------------8-7-8-5-7-4---5-----------------8-7-8-5-7-4-----|
|
|L ()=3rd guitar
|-------------------------------------------------------------------|
|-------------------------------------------------------------------|
|-------------------------------------------------------------------|
|------------------------------------------------(9ph+whammy)-------|
|-5---------------8---------------4---------------5-----------------|
|-5---------------8---------------4-----------------8-7-8-5-7-4-----|

0:22
Both channels
|---------------------------------|
|---------------------------------|
|---------------------------------|
|---7-----8-----------------------|
|-5---6-5---6-5-4-5-----------4---|
|-5-----------------8-7-8-5-7-4---|

0:44
|--------------------|
|--------------------|
|--------------------|
|--------------------|
|-5------------------|
|-5------------------|

END

  Visit MetalTabs.com for more metal tablature

bottom separator

Contact Us | Privacy Policy | Disclaimer | Legal Notice
Copyright © 2001-2014 MetalTabs.com. All Rights Reserved.