top separator

Home

Forum

What's New

Submit a Tab

FAQ

Links

Contact Us

Link to Us

MetalTabs.com logo

Bands

0-9

A

B

C

D

E

F

G

H

I

J

K

L

M

N

O

P

Q

R

S

T

U

V

W

X

Y

Z

Search

What

Where
 

Deadborn - "Decades Of Decapitation" Guitar Tab

Plain Text Version
More Deadborn Tabs

Hits: 1393
Rated: 5.00 out of 5 (1 vote)
Updated: 2006-06-06 10:16:24

 

By:

Meesh

sendpm.gif

email.gif

Important note
This tab is available online because we obtained explicit permission from Deadborn or their label.


#----------------------------------PLEASE NOTE---------------------------------#
#This file is the author's own work and represents their interpretation of the #
#song. You may only use this file for private study, scholarship, or research. #
#Unless specified otherwise, this is NOT an official tab from the band members.#
#------------------------------------------------------------------------------#

  Visit MetalTabs.com for more metal tablature
  
Band:  DEADBORN
Album: Decades of Decapitation
Song:  Decades of Decapitation

Copyright (c) 2004

Music Written by Mario Petrovic/Slavek Foltyn
Arranged by DEADBORN

Score Transcribed by Mischa Antohe

Comments, questions and corrections may be sent to demon_meesh@hotmail.com

Check out DEADBORN at www.deadborn.de

NOTE: DO NOT be poaching this tab from metaltabs.com for use somewhere else.

PM|- = Palm Mute
b    = Bend
h    = Hammer on
p    = Pull off
s    = Slide
()   = Tied Notes (Ignore them)
$    = Segno
&    = Coda

Tuning - All Strings 1 Step Down - D G C F A D.

   Intro - 0:00
    Q=220
   6/4
    Gtrs I, II
        PM  PM--|   PM----|       PM  PM--|   PM----|
||--------------------------|-------------------------|
||o-------------------------|-------------------------|
||--------------------------|-------------------------|
||--5h6---5-------5---------|-5h6---5-------5---------|
||o-----3---6-3-6---3-6-5-3-|-----3---6-3-6---3-6-5-3-|
||--------------------------|-------------------------|


      PM  PM--|   PM------------------------------|
|-------------------------|---------------------------||
|-------------------------|--------------------------o||
|-------------------------|---------------------------||
|-5h6---5-------5---------|---------------------------||
|-----3---6-3-6---3-6-5-3-|-6-5-3-2-3-5-3-3-3-6-2-3--o||
|-------------------------|---------------------------||


                                              2/4
     PM----------|               PM--------|
|----------------------|---------------------|-----|
|----------------------|---------------------|-----|
|------------------5---|-4---5---------------|-----|
|-1----------------x---|-x---x---------------|-----|
|-3----6---------6-3---|-2---3-----6-5-3-2-3-|-----|
|----3---4-3-3-4-------|---------3-----------|-----|


    $
   6/4
        PM  PM--|   PM----|       PM  PM--|   PM----|
||--------------------------|-------------------------|
||o-------------------------|-------------------------|
||--------------------------|-------------------------|
||--5h6---5-------5---------|-5h6---5-------5---------|
||o-----3---6-3-6---3-6-5-3-|-----3---6-3-6---3-6-5-3-|
||--------------------------|-------------------------|


      PM  PM--|   PM------------------------------|
|-------------------------|---------------------------||
|-------------------------|--------------------------o||
|-------------------------|---------------------------||
|-5h6---5-------5---------|---------------------------||
|-----3---6-3-6---3-6-5-3-|-6-5-3-2-3-5-3-3-3-6-2-3--o||
|-------------------------|---------------------------||


 Section 2 - 0:30
  Q=205
     PM----------|               PM----------------|    PM------|
|----------------------|---------------------|----------------------|
|----------------------|---------------------|----------------------|
|------------------5---|-4---5---------------|----------------------|
|-1----------------x---|-x---x---------------|-------1--------------|
|-3----6---------6-3---|-2---3-----6-5-3-2-3-|-2-2-2-3--2-2--2--2---|
|----3---4-3-3-4-------|---------3-----------|-0-0-0----0-0--0--0---|


                                             8/4
  Gtr I
           PM---------------|           PM----|
|----------------------|--------------------|-------------------------|
|----------------------|--------------------|-------------------------|
|----------------------|-------5--4---------|-------5---4-------------|
|-5--4-5-------5-4-2-0-|-------x--x-2-------|-5-2---x---x---5--4-5----|
|-7--6-7-----2---------|-2--2--3--2-2-----2-|-------3---2---7--6-7----|
|----------0-----------|-0--0-------0---0---|-------------------------|
|
| Gtr II
|          PM---------------|           PM----|
|----------------------|--------------------|-------------------------|
|----------------------|--------------------|-------------------------|
|-4--3-4---------------|-------5--4---------|-------5---4---4--3-4----|
|-2--1-2---------------|-------5--4-2-------|---2---5---4---2--1-2----|
|----------------------|-2--2--3--2-2-------|---2---3---2-------------|
|----------0-0-3-2-0-0-|-0--0-------0---0-0-|-3-0---------------------|


 6/4
  PM--------|     PM--|                          PM--------|
|-----------------------|------------------|---------------------|
|-----------------------|------------------|---------------------|
|-----------------------|-----5---4--------|---------------------|
|-----5-4-2-0-2-------5-|-2---x---x---5--4-|-5-------5-4-2-0-2---|
|---2---------2-----2---|-----3---2---7--6-|-7-----2---------2---|
|-0-----------0---0-----|------------------|-----0-----------0---|
|
| PM--------|     PM--|                          PM--------|
|-----------------------|------------------|---------------------|
|-----------------------|------------------|---------------------|
|-----------------------|-----5---4---4--3-|-4-------------------|
|-------------2---------|-2---5---4---2--1-|-2---------------2---|
|-------------2---------|-2---3---2--------|-----------------2---|
|-0-0-3-2-0-0-0---0-0-3-|-0----------------|-----0-0-3-2-0-0-0---|


                                            8/4
  PM--|                        PM--------|       PM--|
|-------------------|----------------------|---------------------------|
|-------------------|----------------------|---------------------------|
|-----------5---4---|----------------------|---------------5------(5)--|
|-----5-2---x---x---|-5--4-5-------5-4-2-0-|-2-------5-2---5------(5)--|
|---2-------3---2---|-7--6-7-----2---------|-2-----2-------3------(3)--|
|-0-----------------|----------0-----------|-0---0---------------------|
|
| PM--|                        PM--------|       PM--|
|-------------------|----------------------|---------------------------|
|-------------------|----------------------|---------------------------|
|-----------5---4---|-4--3-4---------------|---------------5------(5)--|
|-------2---5---4---|-2--1-2---------------|-2---------2---5------(5)--|
|-------2---3---2---|----------------------|-2---------2---3------(3)--|
|-0-0-3-0-----------|----------0-0-3-2-0-0-|-0---0-0-3-0---------------|


 Section 3 - 0:54
 6/4
  Gtr I
  PM     PM-----------------------------------------------------------------
|-------------------------------|------------------------------------------|
|-------------------------------|------------------------------------------|
|-------------------------------|------------------------------------------|
|-2--1-0-2----------------------|-5-5-4-4-5-5-4-4-2-2-1-1-----2--(2)-5-5-5-|
|-2--3-2-2--2-2-2-2-2-2-3-3-3-3-|-------------------------2-2-2--(2)-------|
|-0------0--0-0-----------------|-------------------------0-0-0--(0)-------|
|
| Gtr II
| PM     PM-----------------------------------------------------------------
|-------------------------------|------------------------------------------|
|-------------------------------|------------------------------------------|
|-------------------------------|------------------------------------------|
|-2--5S4-2----------------------|-5-5-4-4-5-5-4-4-2-2-1-1-----2--(2)-5-5-5-|
|-2--3S2-2--2-2-2-2-2-2-3-3-3-3-|-------------------------2-2-2--(2)-------|
|-0------0--0-0-----------------|-------------------------0-0-0--(0)-------|


 -----------------------------|
|---------------------------------------|
|---------------------------------------|
|---------------------------------------|
|-5-6-6-6-6---------------------1-0-2---|
|-----------3-3-2-2-3-3-2-2-2-2-3-2-2---|
|---------------------------0-0-----0---|
|
|-----------------------------|
|---------------------------------------|
|---------------------------------------|
|---------------------------------------|
|-5-6-6-6-6---------------------5S4-2---|
|-----------3-3-2-2-3-3-2-2-2-2-3S2-2---|
|---------------------------0-0-----0---|


  Gtrs I, II
   PM----------------------------------------------
|-------------------------------------------------|
|-------------------------------------------------|
|-------------------------------------------------|
|-(2)-5-5-5-5---------5-5-6-6-5-5-5-5-2-2-2-2-1-1-|
|-(2)---------6-6-6-6-----------------------------|
|-(0)---------------------------------------------|


                                       To Coda
                                       To Coda
 11/8
 -------------------------------------------|
|------------------------------------------------|
|------------------------------------------------|
|------------------------------------------------|
|-1-1-2-2-1-1---------2-2-1-1-2-2----------------|
|-------------3-3-3-3-------------3-3-2-2-3-3----|
|------------------------------------------------|


   Section 3A - 1:03
   6/4
    Gtr I
    PM|        PM--------------------------------------------------|
||-------------------------------------|------------------------------------|
||o------------------------------------|------------------------------------|
||------4S3-4--------------------------|-----------------------------4S3-4--|
||------2S1-2--2-2-2-2-1-1-1-1---------|-1-1-2-2-1-1-----------------2S1-2--|
||o-2-2------------------------3-3-3-3-|-------------3-3-2-2-3-3-2-2--------|
||--0-0--------------------------------|-------------------------0-0--------|
|
|   Gtr II
|   PM|        PM--------------------------------------------------|     PM--
||-------------------------------------|------------------------------------|
||o------------------------------------|------------------------------------|
||-------------------------------------|------------------------------------|
||------2S1-2--2-2-2-2-1-1-1-1---------|-1-1-2-2-1-1-----------------2S1-2--|
||o-2-2-2S1-2------------------3-3-3-3-|-------------3-3-2-2-3-3-2-2-2S1-2--|
||--0-0-----0--------------------------|-------------------------0-0-----0--|


  PM--------------------------------------------|
|-------------------------------------------------|
|-------------------------------------------------|
|-------------------------------------------------|
|-2-2-2-2-1-1-1-1---------1-1-2-2-1-1-------------|
|-----------------3-3-3-3-------------3-3-2-2-3-3-|
|-------------------------------------------------|
|
|-----------------------------------------------|
|-------------------------------------------------|
|-------------------------------------------------|
|-------------------------------------------------|
|-2-2-2-2-1-1-1-1---------1-1-2-2-1-1-------------|
|-----------------3-3-3-3-------------3-3-2-2-3-3-|
|-------------------------------------------------|


  1.
  PM-------------------------------------------
|---------------------------------------------|
|---------------------------------------------|
|---------------------------------------------|
|-----2-2-2-2-5-5-5-5-2-2-2-2-1-1-2-2-1-1-1-1-|
|-2-2-----------------------------------------|
|-0-0-----------------------------------------|
|
| PM-------------------------------------------
|---------------------------------------------|
|---------------------------------------------|
|-----4-4-4-4-7-7-7-7-4-4-4-4-3-3-4-4-3-3-3-3-|
|---------------------------------------------|
|-2-2-----------------------------------------|
|-0-0-----------------------------------------|


 4/4
 -------------------------------|
|-----------------------------------||
|----------------------------------o||
|-----------------------------------||
|---------1-1-2-2-1-1---------------||
|-3-3-3-3-------------3-3-2-2-3-3--o||
|-----------------------------------||
|
|-------------------------------|
|-----------------------------------||
|----------------------------------o||
|---------3-3-4-4-3-3---------------||
|-5-5-5-5-------------5-5-4-4-5-5---||
|----------------------------------o||
|-----------------------------------||


  2.
 6/4
  PM-------------------------------------------
|---------------------------------------------|
|---------------------------------------------|
|---------------------------------------------|
|-----2-2-2-2-5-5-5-5-2-2-2-2-1-1-2-2-1-1-1-1-|
|-2-2-----------------------------------------|
|-0-0-----------------------------------------|
|
| PM-------------------------------------------
|---------------------------------------------|
|---------------------------------------------|
|-----0-0-0-0-3-3-3-3-0-0-0-0-----------------|
|-----------------------------4-4-5-5-4-4-4-4-|
|-2-2-----------------------------------------|
|-0-0-----------------------------------------|


 4/4
 -------------------------------|
|---------------------------------|
|---------------------------------|
|---------------------------------|
|---------1-1-2-2-1-1-------------|
|-3-3-3-3-------------3-3-2-2-3-3-|
|---------------------------------|
|
|-------------------------------|
|---------------------------------|
|---------------------------------|
|---------------------------------|
|-1-1-1-1-4-4-5-5-4-4-1-1-0-0-1-1-|
|---------------------------------|
|---------------------------------|


 Section 3B - 1:19
 6/4
  PM|        PM|          PM|        PM|     PM--
|-----------------------|-----------------------|
|-----------------------|-----------------------|
|-----4S3-4------4S3-4--|-----4S3-4-------------|
|-----2S1-2------2S1-2--|-----2S1-2------1-0-2--|
|-2-2--------2-2--------|-2-2--------2-2-3-2-2--|
|-0-0--------0-0--------|-0-0--------0-0-----0--|
|
| PM|        PM|          PM|        PM|     PM--
|-----------------------|-----------------------|
|-----------------------|-----------------------|
|-----------------------|-----------------------|
|-----2S1-2------2S1-2--|-----2S1-2------5S4-2--|
|-2-2-2S1-2--2-2-2S1-2--|-2-2-2S1-2--2-2-3S2-2--|
|-0-0-----0--0-0-----0--|-0-0-----0--0-0-----0--|


 8/4
 ---------------------------------------------------------------|
|--------------------------------------------------------------------|
|--------------------------------------------------------------------|
|--------------------------------------------------------------------|
|-5-5-5-5---------5-5-6-6-5-5-5-5-2-2-2-2-1-1-1-1-2-2-1-1------------|
|---------6-6-6-6-----------------------------------------3-3-3-3----|
|--------------------------------------------------------------------|
|
|---------------------------------------------------------------|
|--------------------------------------------------------------------|
|--------------------------------------------------------------------|
|-7-7-7-7-3-3-3-3-7-7-8-8-7-7-7-7-4-4-4-4-3-3-3-3-4-4-3-3------------|
|---------------------------------------------------------5-5-5-5----|
|--------------------------------------------------------------------|
|--------------------------------------------------------------------|


 6/4
  PM------------------------|          PM|        PM|
|------------------------------------|-----------------------|
|------------------------------------|-----------------------|
|-----------------------------4S3-4--|-----4S3-4------4S3-4--|
|-2-2-1-1-2-2-----------------2S1-2--|-----2S1-2------2S1-2--|
|-------------3-3-2-2-3-3-2-2--------|-2-2--------2-2--------|
|-------------------------0-0--------|-0-0--------0-0--------|
|
| PM------------------------|          PM|        PM|
|------------------------------------|-----------------------|
|------------------------------------|-----------------------|
|-3-3-4-4-3-3------------------------|-----------------------|
|-------------5-5-4-4-5-5-----2S1-2--|-----2S1-2------2S1-2--|
|-------------------------2-2-2S1-2--|-2-2-2S1-2--2-2-2S1-2--|
|-------------------------0-0-----0--|-0-0-----0--0-0-----0--|


  PM----------------------------------------|
|------------------------------------------------|
|------------------------------------------------|
|------------------------------------------------|
|-----2-2-2-2-1-1-1-1---------1-1-2-2-1-1--------|
|-2-2-----------------3-3-3-3-------------3-3----|
|-0-0--------------------------------------------|
|
| PM----------------------------------------|
|------------------------------------------------|
|------------------------------------------------|
|------------------------------------------------|
|-----2-2-2-2-1-1-1-1---------1-1-2-2-1-1--------|
|-2-2-----------------3-3-3-3-------------3-3----|
|-0-0--------------------------------------------|


  PM-------------------------------------------
|---------------------------------------------|
|---------------------------------------------|
|---------------------------------------------|
|-------------2-2-2-2-5-5-5-5-2-2-2-2-1-1-2-2-|
|-2-2-3-3-2-2---------------------------------|
|---------0-0---------------------------------|
|
| PM-------------------------------------------
|---------------------------------------------|
|---------------------------------------------|
|---------------------------------------------|
|-------------2-2-2-2-5-5-5-5-2-2-2-2-1-1-2-2-|
|-2-2-3-3-2-2---------------------------------|
|---------0-0---------------------------------|


 5/4
 ---------------------------------------|
|-----------------------------------------|
|-----------------------------------------|
|-----------------------------------------|
|-1-1-1-1---------1-1-2-2-1-1-------------|
|---------3-3-3-3-------------3-3-2-2-3-3-|
|-----------------------------------------|
|
|---------------------------------------|
|-----------------------------------------|
|-----------------------------------------|
|-----------------------------------------|
|-1-1-1-1---------1-1-2-2-1-1-------------|
|---------3-3-3-3-------------3-3-2-2-3-3-|
|-----------------------------------------|


 Section 3A/3B - 1:37
 6/4
  PM|        PM--------------------------------------------------|
|------------------------------------|------------------------------------|
|------------------------------------|------------------------------------|
|-----4S3-4--------------------------|-----------------------------4S3-4--|
|-----2S1-2--2-2-2-2-1-1-1-1---------|-1-1-2-2-1-1-----------------2S1-2--|
|-2-2------------------------3-3-3-3-|-------------3-3-2-2-3-3-2-2--------|
|-0-0--------------------------------|-------------------------0-0--------|
|
| PM|        PM--------------------------------------------------|
|------------------------------------|------------------------------------|
|------------------------------------|------------------------------------|
|------------------------------------|------------------------------------|
|-----2S1-2--2-2-2-2-1-1-1-1---------|-1-1-2-2-1-1-----------------2S1-2--|
|-2-2-2S1-2------------------3-3-3-3-|-------------3-3-2-2-3-3-2-2-2S1-2--|
|-0-0-----0--------------------------|-------------------------0-0-----0--|


  PM--------------------------------------------|
|--------------------------------------------------|
|--------------------------------------------------|
|--------------------------------------------------|
|-2-2-2-2-1-1-1-1---------1-1-2-2-1-1--------------|
|-----------------3-3-3-3-------------3-3-2-2-3-3--|
|--------------------------------------------------|
|
| PM--------------------------------------------|
|--------------------------------------------------|
|--------------------------------------------------|
|--------------------------------------------------|
|-2-2-2-2-1-1-1-1---------1-1-2-2-1-1--------------|
|-----------------3-3-3-3-------------3-3-2-2-3-3--|
|--------------------------------------------------|


  PM-------------------------------------------
|---------------------------------------------|
|---------------------------------------------|
|---------------------------------------------|
|-----2-2-2-2-5-5-5-5-2-2-2-2-1-1-2-2-1-1-1-1-|
|-2-2-----------------------------------------|
|-0-0-----------------------------------------|
|
| PM-------------------------------------------
|---------------------------------------------|
|---------------------------------------------|
|-----0-0-0-0-3-3-3-3-0-0-0-0-----------------|
|-----------------------------4-4-5-5-4-4-4-4-|
|-2-2-----------------------------------------|
|-0-0-----------------------------------------|


 -----------------------------------|
|------------------------------------------|
|------------------------------------------|
|-------------------------------------4S3--|
|---------1-1-2-2-1-1-----------------2S1--|
|-3-3-3-3-------------3-3-2-2-3-3-2-2------|
|---------------------------------0-0------|
|
|-----------------------------------|
|------------------------------------------|
|------------------------------------------|
|------------------------------------------|
|-1-1-1-1-4-4-5-5-4-4-1-1-0-0-1-1-----2S1--|
|---------------------------------2-2-2S1--|
|---------------------------------0-0------|


     PM|        PM|          PM|        PM---------------
|-----------------------|-------------------------------|
|-----------------------|-------------------------------|
|-4------4S3-4------4S3-|-4-----------------------------|
|-2------2S1-2------2S1-|-2------1-0-2--5-5-5-5---------|
|----2-2--------2-2-----|----2-2-3-2-2----------6-6-6-6-|
|----0-0--------0-0-----|----0-0-----0------------------|
|
|    PM|        PM|          PM|        PM---------------
|-----------------------|-------------------------------|
|-----------------------|-------------------------------|
|-----------------------|-------------------------------|
|-2------2S1-2------2S1-|-2------5S4-2--5-5-5-5---------|
|-2--2-2-2S1-2--2-2-2S1-|-2--2-2-3S2-2----------6-6-6-6-|
|-0--0-0-----0--0-0-----|-0--0-0-----0------------------|


 -----------------------------------------------|
|-------------------------------------------------|
|-------------------------------------------------|
|-------------------------------------------------|
|-5-5-6-6-5-5-5-5-2-2-2-2-1-1-1-1-2-2-1-1---------|
|-----------------------------------------3-3-3-3-|
|-------------------------------------------------|
|
|-----------------------------------------------|
|-------------------------------------------------|
|-------------------------------------------------|
|-------------------------------------------------|
|-5-5-6-6-5-5-5-5-2-2-2-2-1-1-1-1-2-2-1-1---------|
|-----------------------------------------3-3-3-3-|
|-------------------------------------------------|


  PM------------------------|          PM|        PM|
|------------------------------------|-----------------------|
|------------------------------------|-----------------------|
|-----------------------------4S3-4--|-----4S3-4------4S3-4--|
|-2-2-1-1-2-2-----------------2S1-2--|-----2S1-2------2S1-2--|
|-------------3-3-2-2-3-3-2-2--------|-2-2--------2-2--------|
|-------------------------0-0--------|-0-0--------0-0--------|
|
| PM------------------------|          PM|        PM|
|------------------------------------|-----------------------|
|------------------------------------|-----------------------|
|------------------------------------|-----------------------|
|-2-2-1-1-2-2-----------------2S1-2--|-----2S1-2------2S1-2--|
|-------------3-3-2-2-3-3-2-2-2S1-2--|-2-2-2S1-2--2-2-2S1-2--|
|-------------------------0-0-----0--|-0-0-----0--0-0-----0--|


  PM----------------------------------------|
|---------------------------------------------|
|---------------------------------------------|
|---------------------------------------------|
|-----2-2-2-2-1-1-1-1---------1-1-2-2-1-1-----|
|-2-2-----------------3-3-3-3-------------3-3-|
|-0-0-----------------------------------------|
|
| PM----------------------------------------|
|---------------------------------------------|
|---------------------------------------------|
|---------------------------------------------|
|-----2-2-2-2-1-1-1-1---------1-1-2-2-1-1-----|
|-2-2-----------------3-3-3-3-------------3-3-|
|-0-0-----------------------------------------|


  PM-------------------------------------------
|---------------------------------------------|
|---------------------------------------------|
|---------------------------------------------|
|-------------2-2-2-2-5-5-5-5-2-2-2-2-1-1-2-2-|
|-2-2-3-3-2-2---------------------------------|
|---------0-0---------------------------------|
|
| PM-------------------------------------------
|---------------------------------------------|
|---------------------------------------------|
|-------------4-4-4-4-7-7-7-7-4-4-4-4-3-3-4-4-|
|---------------------------------------------|
|-2-2-3-3-2-2---------------------------------|
|---------0-0---------------------------------|


 4/4
 -------------------------------------------------------|
|---------------------------------|-------------------------|
|---------------------------------|-------------------------|
|---------------------------------|---------------------4---|
|-1-1-1-1---------1-1-2-2-1-1-----|---------------------2---|
|---------3-3-3-3-------------3-3-|-2-2-3-3-2-2-2-2-2-2-----|
|---------------------------------|---------0-0-0-0-0-0-----|
|
|-------------------------------------------------------|
|---------------------------------|-------------------------|
|---------------------------------|-------------------------|
|-3-3-3-3---------3-3-4-4-3-3-----|-------------------------|
|---------5-5-5-5-------------5-5-|-4-4-5-5-----------------|
|---------------------------------|---------2-2-2-2-2-2-2---|
|---------------------------------|---------0-0-0-0-0-0-0---|


 Section 4 - 1:58
 6/4
  PM-------------------------------------------------
|-------------------------|-------------------------|
|-------------------------|-----------------------3-|
|-------------4-----------|-----------4-----3-2-3---|
|---4-5-4-5-2---1-2-4-5-2-|---4-5-4-5---2-5---------|
|-2-----------------------|-2-----------------------|
|-------------------------|-------------------------|
|
| PM-------------------------------------------------
|-------------------------|-------------------------|
|-------------------------|-------------------------|
|-------------------------|-------------------------|
|-------------------------|-----------------------5-|
|-------------------------|---------------5-6-5-6---|
|-3-0-0-0-0-0-3-0-0-0-0-0-|-3-7-3-2-0-0-3-----------|


 -------------------------------------------------|
|-------------------------|-----------------------1---|
|-------------------------|-----------3-----2-1-2-----|
|-------------4-----------|-----3-2-3-----3-----------|
|---4-5-4-5-2---1-2-4-5-2-|-2-5---------3-------------|
|-2-----------------------|---------------------------|
|-------------------------|---------------------------|
|
|-------------------------------------------------|
|-------------------------|---------------------------|
|-------------------------|---------------------------|
|-------------------------|---------------------------|
|-------------------------|-----------------------3---|
|-------------------------|-----------5-----4-3-4-----|
|-3-0-0-0-0-0-3-0-0-0-0-0-|-0-3-6-3-6---3-6-----------|


  PM----------------------------------------------------------------|
|---------------------------------|--------------------------------------|
|---------------------------------|---------------------------------3----|
|--------------4------------------|-----------4---------3---2---3--------|
|---4-5-4-5-2-----1-2-4---5---2---|---4-5-4-5---2---5--------------------|
|-2-------------------------------|-2------------------------------------|
|---------------------------------|--------------------------------------|
|
|                     PM--------|               PM--------------------|
|---------------------------------|--------------------------------------|
|---------------------------------|--------------------------------------|
|---------------------------------|--------------------------------------|
|-2-----------(2)-----------------|-5------------------------------------|
|-2-----------(2)-----------------|-5------------------------------------|
|-0-----------(0)-----3-3-3-3-3-3-|-3-----------3-3-3-3-3-3-7-7-7-7-7-7--|


  PM------------------------------------------------------|
|---------------------------|-----------------------------1-|
|---------------------------|-----------3---------2---1-2---|
|--------------4------------|-----3-2-3-------3-------------|
|---4-5-4-5-2-----1-2-4-5-2-|-2-5---------3-----------------|
|-2-------------------------|-------------------------------|
|---------------------------|-------------------------------|
|
|                     PM--|               PM--------------|
|---------------------------|-------------------------------|
|---------------------------|-------------------------------|
|---------------------------|-------------------------------|
|-2-----------(2)-----------|-5-----------------------------|
|-2-----------(2)-----5-5-5-|-5-----------------------------|
|-0-----------(0)-----3-3-3-|-3-----------3-3-7-7-3-3-3-2-0-|


  PM-------------------------------------------------
|-------------------------|-------------------------|
|-------------------------|-----------------------3-|
|-------------4-----------|-----------4-----3-2-3---|
|---4-5-4-5-2---1-2-4-5-2-|---4-5-4-5---2-5---------|
|-2-----------------------|-2-----------------------|
|-------------------------|-------------------------|
|
|       PM--------------|         PM--------------|
|-------------------------|-------------------------|
|-------------------------|-------------------------|
|-------------------------|-------------------------|
|-2-----------------------|-2---------------------5-|
|-2-----------3-2---------|-2-------------5-6-5-6---|
|-0-----0-0-0-----3-2-0-0-|-0-----0-0-0-6-----------|


 -------------------------------------------------|
|-------------------------|-----------------------1----|
|-------------------------|-----------3-----2-1-2------|
|-------------4-----------|-----3-2-3-----3------------|
|---4-5-4-5-2---1-2-4-5-2-|-2-5---------3--------------|
|-2-----------------------|----------------------------|
|-------------------------|----------------------------|
|
|       PM----------------------------------------|
|-------------------------|----------------------------|
|-------------------------|----------------------------|
|-------------------------|----------------------------|
|-2-----------------------|-----------------------3----|
|-2-----------3-2---------|-----------5-----4-3-4------|
|-0-----0-0-0-----3-2-0-0-|-0-3-6-3-6---3-6------------|


  PM-------------------------------------------------
|-------------------------|-------------------------|
|-------------------------|-----------------------3-|
|-------------4-----------|-----------4-----3-2-3---|
|---4-5-4-5-2---1-2-4-5-2-|---4-5-4-5---2-5---------|
|-2-----------------------|-2-----------------------|
|-------------------------|-------------------------|
|
| PM-------------------------------------------------
|-------------------------|-------------------------|
|-------------------------|-------------------------|
|-------------------------|-------------------------|
|-------------------------|-----------------------5-|
|-------------------------|---------------5-6-5-6---|
|-3-0-0-0-0-0-3-0-0-0-0-0-|-3-7-3-2-0-0-3-----------|


 -------------------------------------------------|
|-------------------------|-----------------------1----|
|-------------------------|-----------3-----2-1-2------|
|-------------4-----------|-----3-2-3-----3------------|
|---4-5-4-5-2---1-2-4-5-2-|-2-5---------3--------------|
|-2-----------------------|----------------------------|
|-------------------------|----------------------------|
|
|-------------------------------------------------|
|-------------------------|----------------------------|
|-------------------------|----------------------------|
|-------------------------|----------------------------|
|-------------------------|-----------------------3----|
|-------------------------|-----------5-----4-3-4------|
|-3-0-0-0-0-0-3-0-0-0-0-0-|-0-3-6-3-6---3-6------------|


  PM-------------------------------------------------------
|-----------------------1-|-----------------------------1-|
|-----------3-----2-1-2---|-----------3---------2---1-2---|
|-----3-2-3-----3---------|-----3-2-3-------3-------------|
|-2-5---------3-----------|-2-5---------3-----------------|
|-------------------------|-------------------------------|
|-------------------------|-------------------------------|
|
|                                       PM-----------------
|-------------------------|-------------------------------|
|-------------------------|-------------------------------|
|-------------5-----------|-------------------------------|
|-0-----------3-----------|-0---------------------------3-|
|-1-----------x-----------|-1-----------------------3-4---|
|-3-----------1-----------|-3-----------1-1-1-1-1-1-------|


 -------------------------------------------------|
|-----------------------1-|-----------------------1-|
|-----------3-----2-1-2---|-----------3-----2-1-2---|
|-----3-2-3-----3---------|-----3-2-3-----3---------|
|-2-5---------3-----------|-2-5---------3-----------|
|-------------------------|-------------------------|
|-------------------------|-------------------------|
|
|-------------------------------------------------|
|-------------------------|-------------------------|
|-------------------------|-------------------------|
|-------------------------|-------------------------|
|-----------------------3-|-----------------------3-|
|-----------5-----4-3-4---|-----------5-----4-3-4---|
|-0-3-6-3-6---3-6---------|-0-3-6-3-6---3-6---------|


                                                                       D.S.
                                                                         2/4
  PM----------------------------------------|               PM--------|
|-0-----------------------|-----------------------|---------------------|-----|
|---1---------------4-----|-----------------------|---------------------|-----|
|-----4-3-------------4-3-|-2-----------------5---|-4---5---------------|-----|
|---------4-3-2-----------|---3-2-1---------1-x---|-x---x---------------|-----|
|---------------3-2-------|---------3-2-------3---|-2---3-----6-5-3-2-3-|-----|
|-------------------------|-------------2-3-------|---------3-----------|-----|
|
| PM----------------------------------------|               PM--------|
|-------------------------|-----------------------|---------------------|-----|
|-------------------------|-----------------------|---------------------|-----|
|-------------------------|-------------------5---|-4---5---------------|-----|
|-2-----------2-----1-----|-0-----------------5---|-4---5---------------|-----|
|---3-2-1-2-1---3-2---2-1-|---1-0-1-3-2-----3-3---|-2---3-----6-5-3-2-3-|-----|
|-------------------------|-------------2-3-------|---------3-----------|-----|


   Section 3B (repeat) - 3:22
    &
   6/4
    PM|        PM|          PM|        PM|
||------------------------|-----------------------|
||o-----------------------|-----------------------|
||------4S3-4------4S3-4--|-----4S3-4-------------|
||------2S1-2------2S1-2--|-----2S1-2------1-0-2--|
||o-2-2--------2-2--------|-2-2--------2-2-3-2-2--|
||--0-0--------0-0--------|-0-0--------0-0-----0--|
|
|   PM|        PM|          PM|        PM|
||------------------------|-----------------------|
||o-----------------------|-----------------------|
||------------------------|-----------------------|
||------2S1-2------2S1-2--|-----2S1-2------5S4-2--|
||o-2-2-2S1-2--2-2-2S1-2--|-2-2-2S1-2--2-2-3S2-2--|
||--0-0-----0--0-0-----0--|-0-0-----0--0-0-----0--|


  PM--------------------------------------------|
|---------------------------------------------------|
|---------------------------------------------------|
|---------------------------------------------------|
|-5-5-5-5---------5-5-6-6-5-5-5-5-2-2-2-2-1-1-1-1---|
|---------6-6-6-6-----------------------------------|
|---------------------------------------------------|
|
| PM--------------------------------------------|
|---------------------------------------------------|
|---------------------------------------------------|
|---------------------------------------------------|
|-5-5-5-5---------5-5-6-6-5-5-5-5-2-2-2-2-1-1-1-1---|
|---------6-6-6-6-----------------------------------|
|---------------------------------------------------|


  PM----------------------------------------|
|---------------------------------------------|
|---------------------------------------------|
|---------------------------------------------|
|-2-2-1-1---------2-2-1-1-2-2-----------------|
|---------3-3-3-3-------------3-3-2-2-3-3-2-2-|
|-----------------------------------------0-0-|
|
| PM----------------------------------------|
|---------------------------------------------|
|---------------------------------------------|
|---------------------------------------------|
|-2-2-1-1---------2-2-1-1-2-2-----------------|
|---------3-3-3-3-------------3-3-2-2-3-3-2-2-|
|-----------------------------------------0-0-|


         PM|        PM|          PM------------------------|
|-----------------------|------------------------------------|
|-----------------------|------------------------------------|
|-4S3-4------4S3-4------|-4S3-4------------------------------|
|-2S1-2------2S1-2------|-2S1-2------2-2-2-2-1-1-1-1---------|
|--------2-2--------2-2-|--------2-2-----------------3-3-3-3-|
|--------0-0--------0-0-|--------0-0-------------------------|
|
|        PM|        PM|          PM------------------------|
|-----------------------|------------------------------------|
|-----------------------|------------------------------------|
|-----------------------|------------------------------------|
|-2S1-2------2S1-2------|-2S1-2------2-2-2-2-1-1-1-1---------|
|-2S1-2--2-2-2S1-2--2-2-|-2S1-2--2-2-----------------3-3-3-3-|
|-----0--0-0-----0--0-0-|-----0--0-0-------------------------|


  PM-------------------------------------------
|---------------------------------------------|
|---------------------------------------------|
|---------------------------------------------|
|-1-1-2-2-1-1-----------------2-2-2-2-5-5-5-5-|
|-------------3-3-2-2-3-3-2-2-----------------|
|-------------------------0-0-----------------|
|
| PM-------------------------------------------
|---------------------------------------------|
|---------------------------------------------|
|-----------------------------4-4-4-4-7-7-7-7-|
|-1-1-2-2-1-1---------------------------------|
|-------------3-3-2-2-3-3-2-2-----------------|
|-------------------------0-0-----------------|


 7/4                                                         3/4
 -------------------------------------------------------------------------|
|----------------------------------------------------------||-----------------|
|---------------------------------------------------------o||-----------------|
|----------------------------------------------------------||-------------4---|
|-2-2-2-2-1-1-2-2-1-1-1-1---------1-1-2-2-1-1--------------||-------------2---|
|-------------------------3-3-3-3-------------3-3-2-2-3-3-o||-2-2-2-2-2-2-----|
|----------------------------------------------------------||-0-0-0-0-0-0-----|
|
|-------------------------------------------------------------------------|
|----------------------------------------------------------||-----------------|
|---------------------------------------------------------o||-----------------|
|-4-4-4-4-3-3-4-4-3-3-3-3---------3-3-4-4-3-3--------------||-----------------|
|-------------------------5-5-5-5-------------5-5-4-4-5-5--||-----------------|
|---------------------------------------------------------o||-2-2-2-2-2-2-2---|
|----------------------------------------------------------||-0-0-0-0-0-0-0---|


 Section 4/ Outro - 3:53
 6/4
  PM-------------------------------------------------
|-------------------------|-------------------------|
|-------------------------|-----------------------3-|
|-------------4-----------|-----------4-----3-2-3---|
|---4-5-4-5-2---1-2-4-5-2-|---4-5-4-5---2-5---------|
|-2-----------------------|-2-----------------------|
|-------------------------|-------------------------|
|
| PM-------------------------------------------------
|-------------------------|-------------------------|
|-------------------------|-------------------------|
|-------------------------|-------------------------|
|-------------------------|-----------------------5-|
|-------------------------|---------------5-6-5-6---|
|-3-0-0-0-0-0-3-0-0-0-0-0-|-3-7-3-2-0-0-3-----------|


 -------------------------------------------------|
|-------------------------|-----------------------1---|
|-------------------------|-----------3-----2-1-2-----|
|-------------4-----------|-----3-2-3-----3-----------|
|---4-5-4-5-2---1-2-4-5-2-|-2-5---------3-------------|
|-2-----------------------|---------------------------|
|-------------------------|---------------------------|
|
|-------------------------------------------------|
|-------------------------|---------------------------|
|-------------------------|---------------------------|
|-------------------------|---------------------------|
|-------------------------|-----------------------3---|
|-------------------------|-----------5-----4-3-4-----|
|-3-0-0-0-0-0-3-0-0-0-0-0-|-0-3-6-3-6---3-6-----------|


  PM-------------------------------------------------------
|-----------------------1-|-----------------------------1-|
|-----------3-----2-1-2---|-----------3---------2---1-2---|
|-----3-2-3-----3---------|-----3-2-3-------3-------------|
|-2-5---------3-----------|-2-5---------3-----------------|
|-------------------------|-------------------------------|
|-------------------------|-------------------------------|
|
|                                       PM-----------------
|-------------------------|-------------------------------|
|-------------------------|-------------------------------|
|-------------5-----------|-------------------------------|
|-0-----------3-----------|-0---------------------------3-|
|-1-----------x-----------|-1-----------------------3-4---|
|-3-----------1-----------|-3-----------1-1-1-1-1-1-------|


 -------------------------------------------------|
|-----------------------1-|-----------------------1-|
|-----------3-----2-1-2---|-----------3-----2-1-2---|
|-----3-2-3-----3---------|-----3-2-3-----3---------|
|-2-5---------3-----------|-2-5---------3-----------|
|-------------------------|-------------------------|
|-------------------------|-------------------------|
|
|-------------------------------------------------|
|-------------------------|-------------------------|
|-------------------------|-------------------------|
|-------------------------|-------------------------|
|-----------------------3-|-----------------------3-|
|-----------5-----4-3-4---|-----------5-----4-3-4---|
|-0-3-6-3-6---3-6---------|-0-3-6-3-6---3-6---------|


  PM----------------------------------------|               PM--------|
|-0-----------------------|-----------------------|----------------------*|
|---1---------------4-----|-----------------------|----------------------*|
|-----4-3-------------4-3-|-2-----------------5---|-4---5----------------*|
|---------4-3-2-----------|---3-2-1---------1-x---|-x---x----------------*|
|---------------3-2-------|---------3-2-------3---|-2---3-----6-5-3-2-3--*|
|-------------------------|-------------2-3-------|---------3------------*|
|
| PM----------------------------------------|               PM--------|
|-------------------------|-----------------------|----------------------*|
|-------------------------|-----------------------|----------------------*|
|-------------------------|-------------------5---|-4---5----------------*|
|-2-----------2-----1-----|-0-----------------5---|-4---5----------------*|
|---3-2-1-2-1---3-2---2-1-|---1-0-1-3-2-----3-3---|-2---3-----6-5-3-2-3--*|
|-------------------------|-------------2-3-------|---------3------------*|

End.

HAIL DEADBORN!!!

  Visit MetalTabs.com for more metal tablature

bottom separator

Contact Us | Privacy Policy | Disclaimer | Legal Notice
Copyright © 2001-2014 MetalTabs.com. All Rights Reserved.