top separator

Home

Forum

FAQ

Contact Us

Link to Us

MetalTabs.com logo

Bands

0-9

A

B

C

D

E

F

G

H

I

J

K

L

M

N

O

P

Q

R

S

T

U

V

W

X

Y

Z

Cryptopsy - "Dead and Dripping" Guitar Tab

Plain Text Version
More Cryptopsy Tabs

Hits: 6983
Rated: 5.00 out of 5 (14 votes)
Updated: 2004-04-21 07:40:38

By:

johnmansley


#----------------------------------PLEASE NOTE---------------------------------#
#This file is the author's own work and represents their interpretation of the #
#song. You may only use this file for private study, scholarship, or research. #
#Unless specified otherwise, this is NOT an official tab from the band members.#
#------------------------------------------------------------------------------#

  Visit MetalTabs.com for more metal tablature
  
Band:  Cryptopsy
Album: None So Vile
Song:  Dead And Dripping

Copyright (c)  (Displeased Records) (1995)
Version 1.0 - (13/4/04)

Transcribed By: John Mansley
Email:          john@smansley.freeserve.co.uk


.  - palm mute           /  - slide up to
\  - slide down to       ~  - vibrato
h  - hammer on           b  - Bend
p  - pull off            Suffixes for bend
t  - tap                 f  - full bend    h - half bend
ph - pinched harmonic    q  - quarter bend t - tap bend
*  - see comment         ^  - Hold bend    r release bend
x  - Stuccatto           ~  - vibrato bend
,  - slight palm mute    () - ghost note, sustained note
"  - tremolo note        <> - Trill
nh - natural harmonic    .  - (above note) staccato

Notes : This is essentially an update of the tab already posted on
        the site by (rguy).  The tab was already good but I've added
        a couple of minor corrections, finished off the last riff and
        tabbed out the solo.

Tuning: B E A D F# B


Intro:

|Gtr1
|------------------|------------------|
|------------------|------------------|
|-.----------------|------------------|
|-2----------------|------------------|
|-0----------------|------------------|
|------------------|------------------|
| .                |                  |
|                  |                  |
|Gtr2              |                  |
|------------------|------------------|
|------------------|------------------|
|------------------|------------------|
|------------------|-------------6699-|
|-0033666655332233-|-003366665533-----|
|------------------|------------------|


|Gtr1
|------------------|------------------|
|------------------|------------------|
|-.----------------|-----.------------|
|-2----------------|-----2------------|
|-0----------------|-----0------------|
|------------------|------------------|
| .                |     .            |
|                  |                  |
|Gtr2              |                  |
|------------------|------------------|
|------------------|------------------|
|------------------|------------------|
|------------------|-------------6699-|
|-0033666655332233-|-003366665533-----|
|------------------|------------------|


Riff A:

|------------------|------------------|
|------------------|------------------|
|------------------|------------------|
|------------------|-------------6699-|
|-0033666655332233-|-003366665533-----|
|------------------|------------------|


Riff B:

|------------------|------------------|
|------------------|------------------|
|------------------|------------------|
|------------------|------------------|
|------------------|-------------6699-|
|-0033666655332233-|-003366665533-----|


Riff C1:

|---------------------------|
|---------------------------|
|---------------------------|
|----------6h9----------6h9-|
|-2--9-10------2--9-10------|
|-0--7--8------0--7--8------|
  .  .  .      .  .  .


Riff D1:

|Gtr1
|------------------|------------------|------------------|
|------------------|------------------|------------------|
|------------------|------------------|------------------|
|-.----------------|------------------|-.----------------|
|-3-----------3322-|-------------3322-|-3-----------3322-|
|------------------|------------------|------------------|
| .           .... |             .... | .           .... |
|                  |                  |                  |
|Gtr2              |                  |                  |
|------------------|------------------|------------------|
|------------------|------------------|------------------|
|------------------|------------------|------------------|
|-----4444----4433-|-----4444----4433-|-----4444----4433-|
|------------------|------------------|------------------|
|-0011----0011-----|-0011----0011-----|-0011----0011-----|


Riff D2:

|Gtr1
|------------------|
|------------------|
|-----5555----5544-|
|------------------|
|------------------|
|-0011----0011-----|
|                  |
|                  |
|Gtr2              |
|------------------|
|------------------|
|------------------|
|-----4444----4433-|
|------------------|
|-0011----0011-----|


Solo Backing:       _________________
                                1,2,3|
|------------------|------------------|
|------------------|------------------|
|------------------|------------------|
|------------------|------------------|
|------------------|-------------6699-|
|-0033666655332233-|-003366665533-----|

                    _________________
                                    4|
|------------------|------------------|
|------------------|------------------|
|------------------|------------------|
|------------------|--------5---8--11-|
|--------------2---|5---8---3---6---9-|
|-003366665533-0---|3---6-------------|
               .    .   .   .   .   .


Solo:
              nh------
|-------------5-----------|--------------------------------|
|---------------5---5-7---|--------------------------------|
|-----------------5-------|--------------------------------|
|-------------------------|------------------10h11h13p10~~-|
|-/7~---------------------|2/5h7h8-7h8h10h12---------------|
|-------------------------|--------------------------------|


|-------------------------|-15bf--hold---r------------------|
|-----------------15p13p12|----------------------1213151312-|
|------12------11---------|----------------111214-----------|
|-/14------14-------------|---------------------------------|
|-------------------------|---------------------------------|
|-------------------------|---------------------------------|


|--------------------------|-20bf-19bf-17bf----hold----r-|
|--------------/15--13--12-|-----------------------------|
|--------------------------|-----------------------------|
|-/12---10---9-------------|-----------------------------|
|--------------------------|-----------------------------|
|--------------------------|-----------------------------|


|-171920-15-17-1415171215------|-------------------------12|
|-------------------------13~~-|-------1213151312------13--|
|------------------------------|-111214--------------14----|
|------------------------------|-------------------14------|
|------------------------------|---------------------------|
|------------------------------|---------------------------|


|-18bh------hold---------r-|--p12------12h18p12h15p12-------|
|--------------------------|-----13------------------13-----|
|--------------------------|-------14------------------14---|
|--------------------------|---------14------------------14-|
|--------------------------|--------------------------------|
|--------------------------|--------------------------------|


|-12h18p12h15p12------12h18p12h15p12----------12h15p12-|
|---------------13------------------13------13---------|
|-----------------14------------------14--14-----------|
|-------------------14------------------14-------------|
|------------------------------------------------------|
|------------------------------------------------------|


|-(12)\------------|------------------|
|------------------|------------------|
|------------------|------------------|
|------------------|------------------|
|------------------|------------------|
|------------------|------------------|


Riff E:

|------------------|------------------|
|------------------|------------------|
|------------------|------------------|
|-2-------4--------|-8-------5--------|
|-2-------4--------|-6-------3--------|
|-0-------2--------|-6-------3--------|
          .

|------------------|------------------|
|------------------|------------------|
|------------------|------------------|
|-4-------5--------|-4-------4--------|
|-2-------3--------|-2-------4--------|
|-2-------3--------|-2-------2--------|
                             .


Riff C2:

|
|-----------------------ph--|
|-----------------------12\-|
|---------------------------|
|----------6h9--------------|
|-2--9-10------2--9-10------|
|-0--7--8------0--7--8------|
| .  .  .      .  .  .      |
|                           |
|Gtr2                       |
|---------------------------|
|---------------------------|
|---------------------------|
|----------6h9--------------|
|-2--9-10------2--9-10------|
|-0--7--8------0--7--8------|
  .  .  .      .  .  .


Riff F1:

|-----------------|-----------------|
|-----------------|-----------------|
|-----------------|-----------------|
|-------------7-8-|-----------------|
|-2-3-6-5-9-8-5-6-|-2-3-6-5-9-8-6-5-|
|-0-1-4-3-7-6-----|-0-1-4-3-7-6-4-3-|


Riff F2:

|-----------------|-----------------|
|-----------------|-----------------|
|-----------------|-----------------|
|-------------7-8-|-----------------|
|-2-3-6-5-9-8-5-6-|-2-3-6-5-9-8-6-5-|
|-0-1-4-3-7-6-----|-0-1-4-3-7-6-4-3-|
                    . . . . . . . .


Riff F3:

|-----------------|-----------------|
|-----------------|-----------------|
|-----------------|-----------------|
|-------------7-8-|-----------------|
|-2-3-6-5-9-8-5-6-|-2-3-6-5-9-8-6-5-|
|-0-1-4-3-7-6-----|-0-1-4-3-7-6-4-3-|
                                . .


Riff F4:

|-----------------|-----------------|
|-----------------|-----------------|
|-----------------|-----------------|
|-------------7-8-|-----------------|
|-2-3-6-5-9-8-5-6-|-2-3-6-5-9-8-6-5-|
|-0-1-4-3-7-6-----|-0-1-4-3-7-6-4-3-|
  . . . . . . . .


Ending:

|-----------------|
|-----------------|
|-----------------|
|-.---------------|
|-2---------------|
|-0---------------|



Song Structure:

Intro
Riff B       (x2)
Riff A       (x2)
Riff B       (x2)
Riff C1      (x8)
Riff A       (x2)
Riff B       (x4)
Riff D1
Riff D2      (x9)
Riff C1      (x4)
                 _
Solo Backing      |  Solo played over
Riff E           _|  this section

Riff E       (x3)
Riff D2      (x4)
Riff C1      (x3)
Riff C2
Riff A       (x2)
Riff B       (x2)
Riff C1      (x2)
Riff B       (x4)
Riff F1      (Gtr2 only)
Riff F2
Riff F1      (x2)
Riff F2
Riff F1      (x2)
Riff F3
Riff F1      (x2)
Riff F4
Ending


Any comments, corrections or suggestions are welcome.

Also, I encourage you to register a rating for this tab - whether it
be a good or bad one.  The only way I know that a tab needs improving
or not is if people give it a rating.  Thanks in advance.


END

  Visit MetalTabs.com for more metal tablature

bottom separator

Contact Us | Privacy Policy | Disclaimer
Copyright © 2001-2014 MetalTabs.com. All Rights Reserved.