top separator

Home

Forum

What's New

Submit a Tab

FAQ

Links

Contact Us

Link to Us

MuSpy.com

MetalTabs.com logo

Bands

0-9

A

B

C

D

E

F

G

H

I

J

K

L

M

N

O

P

Q

R

S

T

U

V

W

X

Y

Z

Search

What

Where
 

Sodom - "Stalinorgel" Bass Tab

Plain Text Version
More Sodom Tabs

Hits: 2696
Rated: 3.00 out of 5 (2 votes)
Updated: 2006-06-06 10:13:46

 

By:

SolothurN

sendpm.gif

email.gif

Important note
This tab is available online because we obtained explicit permission from Sodom or their label.


#----------------------------------PLEASE NOTE---------------------------------#
#This file is the author's own work and represents their interpretation of the #
#song. You may only use this file for private study, scholarship, or research. #
#Unless specified otherwise, this is NOT an official tab from the band members.#
#------------------------------------------------------------------------------#

  Visit MetalTabs.com for more metal tablature
  
Band:  SODOM
Album: Better Off Dead (1990)
Song:  Stalinorgel

Copyright (c) - SPV/Steamhammer 1990
Version 1.0 - 08.05.2004

Transcribed By: SolothurN
Email:          solothurn@wp.pl

.  - palm mute           /  - slide up to
\  - slide down to       ~  - vibrato
h  - hammer on           b  - Bend
p  - pull off            Suffixes for bend
t  - tap                 f  - full bend    h - half bend
ph - pinched harmonic    q  - quarter bend t - tap bend
*  - see comment         ^  - Hold bend    r release bend
x  - Stuccatto           ~  - vibrato bend
,  - slight palm mute    () - ghost note, sustained note
"  - tremolo note        <> - Trill

Tuning: E A D G

Verse x11
|--------------------------------------------------|
|--------------------------------------------------|
|-7--5---------------------------------------------|
|-------7--5-5-5-5-5-5-5-5-3-3-3-3-3-3-3-3---------|

Bridge 1 x1

a)
|------------------------------------------------------|
|------------------------------------------------------|
|-7--5--------------------------------------7--5--7--5-|
|-------7--5-5-5-5-5-5-5-5-3-3-3-3-3-3-3-3-------------|

b)
|--------------------------------------------------|
|--------------------------------------------------|
|--------------------------------------------------|
|-0-0-0-0-3-3-3-3-0-0-0-0-3--4--5------------------|

c)
|--------------------------------------------------|
|--------------------------------------------------|
|---------------------------7--5--7----------------|
|-0-0-0-0-3-3-3-3-0-0-0-0--------------------------|

Chorus x2
|-----------------------------------------------------------|
|-----------------------------------------------------------|
|-5-5-5-5----------5-5-5-5----------------------------------|
|---------3-3-3-3----------3-3-3-3--5-5-5-5-5-5-5-5-5-5-5-5-|

Riff 2

|---------------------------------------------|
|---------------------------------------------|
|----------------------------------7--5-------|
|-5-5-5-5-5-5-5-5-3-3-3-3-3-3-3-3--------7----|

Bridge 2
|----------------------------------------------------------------|
|----------------------------------------------------------------|
|-5-5--5-5--5-5-----------------5-5--5-5--5-5--------------------|
|----------------3-3--3-3--3-3-----------------3-3--3-3--3-3-----|

Outro

Riff 1
a)
|--------------------------------------------------|
|--------------------------------------------------|
|--------------------------------------------------|
|--0--0--0--0--0--0--0--0--0--0--0--0--0--0--0--0--|

b)
|----------------------------------------------------------|
|----------------------------------------------------------|
|-5-5-5-5---------5-5-5-5----------------------------------|
|---------3-3-3-3---------3-3-3-3--5-5-5-5-5-5-5-5-5-5-5-5-|

Riff 2
|--------------------------------------------------|
|--------------------------------------------------|
|--------5-----------------------------------------|
|--3------------------------5----------------------|

Riff   1    x11
Bridge 1    x1
Chorus      x2
Riff   2    x4
Bridge 1b)  x1
Bridge 1c)  x1
Chorus      x2
Bridge 2    x1
Riff   2    x2
Bridge 1b)  x3
Bridge 1c)  x1
Chorus      x2
Riff 2      x1
Bridge 1    x1
Chorus      x2
Bridge 2    x1
Riff   2    x2
Bridge 1b)  x3
Bridge 1c)  x1
Chorus      x4
Outro: Riff 1 a) x1
       Riff 1 b) x4
       Riff 2    x1

  Visit MetalTabs.com for more metal tablature

bottom separator

Contact Us | Privacy Policy | Disclaimer | Legal Notice
Copyright © 2001-2014 MetalTabs.com. All Rights Reserved.