#----------------------------------PLEASE NOTE---------------------------------#
#This file is the author's own work and represents their interpretation of the #
#song. You may only use this file for private study, scholarship, or research. #
#Unless specified otherwise, this is NOT an official tab from the band members.#
#------------------------------------------------------------------------------#

  Visit MetalTabs.com for more metal tablature
  
Band: Akercocke
Album: The Goat of Mendes
Song: The Serpent
Record Label: Peaceville
Tuning: C F A# D# G C

This song has alot of weird whammy bar and beyond headstock stuff so you'll have
to listen to the song to get these exactly right.

----------------------------------
----------------------------------
----------------------------------
------9-----------------9---------
-7----7----5-------7----7----8----
-0---------6-------0---------9----
                            bend

----------------------------------
----------------------------------
----------------------------------
------6-----------------9---------
-7----7----5-------7----7----8----
-0---------6-------0---------9----X2
                            bend


----------------------------------
----------------------------------
----------------------------------
------6-----------------9---------
-7----7----5-------7----7----8----
-0---------6-------0---------9----
                           let ring

        0:53
-*-----------------------------
-5-----------------------------
-------------------------------
-------------------------------
-------------------------------
-------pick-scrape\\\\\\\\\\\--
let ring.
the harmonic here is between the 5 and 6 fret.


--------------------------------------------------------
--------------------------------------------------------
--------------------------------------------------------
--------------------------------------------------------
-------------------h///////-------------------h///////--
-00000000000000000-00000000-00000000000000000-00000000--X2
 trem.................................................
h///////=pushing down on the string beyond the fretboard to change pitch.


----------------------------------
----------------------------------
----------------------------------
----------------------------------
-w\\\\\\\\\\\\\\\\-w/////-w\\\\\--
-00000000000000000-000000-000000--
 trem...........................
w\\\\\\\\\\\\\\\\= whammy bar goes down in pitch.
w/////= whammy bar goes up to C.


--------------------------------------------------------
--------------------------------------------------------
--------------------------------------------------------
--------------------------------------------------------
-------------------h///////-------------------h///////--
-00000000000000000-00000000-00000000000000000-00000000--X2
 trem.................................................
h///////=pushing down on the string beyond the fretboard to change pitch.


----------------------------------
----------------------------------
----------------------------------
----------------------------------
-w\\\\\\\\\\\\\\\\-w/////-w\\\\\--
-00000000000000000-000000-000000--
 trem...........................
w\\\\\\\\\\\\\\\\= whammy bar goes down in pitch.
w/////= whammy bar goes up to C.


--------------------------------------------------------
--------------------------------------------------------
--------------------------------------------------------
--------------------------------------------------------
-------------------h///////-------------------h///////--
-00000000000000000-00000000-00000000000000000-00000000--X2
 trem.................................................
h///////=pushing down on the string beyond the fretboard to change pitch.


----------------------------------
----------------------------------
----------------------------------
----------------------------------
-w\\\\\\\\\\\\\\\\-w/////-w\\\\\--
-00000000000000000-000000-000000--
 trem...........................
w\\\\\\\\\\\\\\\\= whammy bar goes down in pitch.
w/////= whammy bar goes up to C.

----------------------------------
----------------------------------
----------------------------------
------6-----------------9---------
-7----7----5-------7----7----8----
-0---------6-------0---------9----X2
                            bend

--------------------------------------------------------
--------------------------------------------------------
--------------------------------------------------------
--------------------------------------------------------
-------------------h///////-------------------h///////--
-00000000000000000-00000000-00000000000000000-00000000--X2
 trem.................................................
h///////=pushing down on the string beyond the fretboard to change pitch.


----------------------------------
----------------------------------
----------------------------------
----------------------------------
-w\\\\\\\\\\\\\\\\-w/////-w\\\\\--
-00000000000000000-000000-000000--
 trem...........................
w\\\\\\\\\\\\\\\\= whammy bar goes down in pitch.
w/////= whammy bar goes up to C.

--------------------------------------------------------
--------------------------------------------------------
--------------------------------------------------------
--------------------------------------------------------
-------------------h///////-------------------h///////--
-00000000000000000-00000000-00000000000000000-00000000--X2
 trem.................................................
h///////=pushing down on the string beyond the fretboard to change pitch.


------------------------------------
------------------------------------
------------------------------------
---------------------------------wd-
-w\\\\\\\\\\\\\\\\-w/////-w\\\\\-7--
-00000000000000000-000000-000000-0--
 trem...........................
w\\\\\\\\\\\\\\\\= whammy bar goes down in pitch.
w/////= whammy bar goes up to C.
wd= whammy dive


----------------------------------
----------------------------------
----------------------------------
------6-----------------9---------
-7----7----5-------7----7----8----
-0---------6-------0---------9----X2
                            bend

--------------------------------------------------------
--------------------------------------------------------
--------------------------------------------------------
--------------------------------------------------------
-------------------h///////-------------------h///////--
-00000000000000000-00000000-00000000000000000-00000000--X2
 trem.................................................
h///////=pushing down on the string beyond the fretboard to change pitch.


----------------------------------
----------------------------------
----------------------------------
----------------------------------
-w\\\\\\\\\\\\\\\\-w/////-w\\\\\--
-00000000000000000-000000-000000--
 trem...........................
w\\\\\\\\\\\\\\\\= whammy bar goes down in pitch.
w/////= whammy bar goes up to C.

--------------------------------------------------------
--------------------------------------------------------
--------------------------------------------------------
--------------------------------------------------------
-------------------h///////-------------------h///////--
-00000000000000000-00000000-00000000000000000-00000000--X2
 trem.................................................
h///////=pushing down on the string beyond the fretboard to change pitch.


----------------------------------
----------------------------------
----------------------------------
----------------------------------
-w\\\\\\\\\\\\\\\\-w/////-w\\\\\--
-00000000000000000-000000-000000--
 trem...........................
w\\\\\\\\\\\\\\\\= whammy bar goes down in pitch.
w/////= whammy bar goes up to C.

----------------------------------
----------------------------------
----------------------------------
------6-----------------9---------
-7----7----5-------7----7----8----
-0---------6-------0---------9----
                            bend

----------------------------------
----------------------------------
----------------------------------
------6-----------------9---------
-7----7----5-------7----7----8----
-0---------6-------0---------9----
                           let ring

THE END

any corrections: septic_flesh241@hotmail.com

  Visit MetalTabs.com for more metal tablature