top separator

Home

Forum

What's New

Submit a Tab

FAQ

Links

Contact Us

Link to Us

MetalTabs.com logo

Bands

0-9

A

B

C

D

E

F

G

H

I

J

K

L

M

N

O

P

Q

R

S

T

U

V

W

X

Y

Z

Search

What

Where
 

Akercocke - "Masks Of God" Guitar Tab

Plain Text Version
More Akercocke Tabs

Hits: 1952
Rated: 5.00 out of 5 (1 vote)
Updated: 2006-06-06 09:57:09

 

By:

Robbie Filth

sendpm.gif

email.gif

Important note
This tab is available online because we obtained explicit permission from Akercocke or their label.


#----------------------------------PLEASE NOTE---------------------------------#
#This file is the author's own work and represents their interpretation of the #
#song. You may only use this file for private study, scholarship, or research. #
#Unless specified otherwise, this is NOT an official tab from the band members.#
#------------------------------------------------------------------------------#

  Visit MetalTabs.com for more metal tablature
  
Band: Akercocke
Album: The Goat of Mendes
Song: Masks Of God
Record Label: Peaceville
Tuning: C F A# D# G C

----------------------------------
----------------------------------
----------------------------------
----------------------------------
----------------------------------
-3-4-2-3-1-2-0-1-3-4-2-3-1-2-0-1--X2
 trem...........................

--------------------------------------------------
--------------------------------------------------
--------------------------------------------------
-5-5-5-5-5-5-5-5-5-5-5-5-5-5-5-5-5-5-5-5-5-5-5-5--
-4-4-4-4-4-4-4-4-4-4-4-4-4-4-4-4-4-4-4-4-4-4-4-4--
-3-3-3-3-3-3-3-3-3-3-3-3-3-3-3-3-3-3-3-3-3-3-3-3--
     pm.............................................

----------------------------------
----------------------------------
----------------------------------
----------------------------------
-5-6-4-5-3-4-2-3------------------
-3-4-2-3-1-2-0-1-3-4-2-3-1-2-0-1--
 pm. . . . . . . trem............

--------------------------------------------------
--------------------------------------------------
--------------------------------------------------
-5-5-5-5-5-5-5-5-5-5-5-5-5-5-5-5-5-5-5-5-5-5-5-5--
-4-4-4-4-4-4-4-4-4-4-4-4-4-4-4-4-4-4-4-4-4-4-4-4--
-3-3-3-3-3-3-3-3-3-3-3-3-3-3-3-3-3-3-3-3-3-3-3-3--
 pm.............................................

----------------------------------
----------------------------------
----------------------------------
----------------------------------
-5-6-4-5-3-4-2-3------------------
-3-4-2-3-1-2-0-1-3-4-2-3-1-2-0-1--
 pm. . . . . . . trem............

--------------------------
--------------------------
--------------------------
-5-5-5-5-5-5-5-5-5-5-5----
-4-4-4-4-4-4-4-4-4-4-4-4--
-3-3-3-3-3-3-3-3-3-3-3-2--
 pm......................

-----------------------------------------------
-----------------------------------------------
-----------------------------------------------
-----------------------------------------------
-2----3-6-5-3----3-6-5-2----3-6-5-3--33333333--
-0----1-4-3-1----1-4-3-0----1-4-3-1--11111111--
                                     pm......

----------------------------------------------------------------
----------------------------------------------------------------
----------------------------------------------------------------
-8--------------------------------------------------------------
-6-22222222222222222-5----4----5-----44444444444444444-4/5\4\3--
---00000000000000000-3-00-2-00-3-000-22222222222222222-2/3\2\1--
   pm...............   ..   ..   ... .................

-------------------------------------------------------------------------
-------------------------------------------------------------------------
-------------------------------------------------------------------------
-------8-----------------------------------------------------------------
-2-222-6-222-2-2222222222222-5----4----5-----44444444444444444-4/5\4-ph--
-0-000---000-0-0000000000000-3-00-2-00-3-000-22222222222222222-2/3\2-1---
   ...   ...   .............   ..   ..   ... .................

----------------------------------------------------------------
----------------------------------------------------------------
----------------------------------------------------------------
-8--------------------------------------------------------------
-6-22222222222222222-5----4----5-----44444444444444444-4/5\4\3--
---00000000000000000-3-00-2-00-3-000-22222222222222222-2/3\2\1--
   pm...............   ..   ..   ... .................

-------------------------------------------------------------------------
-------------------------------------------------------------------------
-------------------------------------------------------------------------
-------8-----------------------------------------------------------------
-2-222-6-222-2-2222222222222-5----4----5-----44444444444444444-4/5\4-ph--
-0-000---000-0-0000000000000-3-00-2-00-3-000-22222222222222222-2/3\2-1---
   ...   ...   .............   ..   ..   ... .................

-----------------------------------------------
-----------------------------------------------
-----------------------------------------------
-----------------------------------------------
-2----3-6-5-3----3-6-5-2----3-6-5-3--33333333--
-0----1-4-3-1----1-4-3-0----1-4-3-1--11111111--
                                     pm......

-------------------------------------------------
-------------------------------------------------
-------------------------------------------------
-------------------------------------------------
----------------------------------------------2--
-0----1-4-3-1----1-4-3-0----1-4-3-1--11111111-0--
 pm and trem................................. whammy dive down.

--------------------------------
--------------------------------
--------------------------------
-----3--------------------------
-2-1---222-2-2-1-3-2-4-3-5-4-6--
-------000-0-----------1-3-2-4--
 trem. pm.   trem..... pm. . .

--------------------------------
--------------------------------
--------------------------------
-----3--------------------------
-2-1---222-2-2-1-3-2-4----------
-------000-0-----------1-3-2-4--
 trem. pm.   trem.............

--------------------------------
--------------------------------
--------------------------------
-----3--------------------------
-2-1---222-2-2-1-3-2-4-3-5-4-6--
-------000-0-----------1-3-2-4--
 trem. pm.   trem..... pm. . .

--------------------------------------------
--------------------------------------------
--------------------------------------------
--------------------------------------------
--------------------------------------------
-12-0-12-0-12-0-13-12-11-0-11-0-11-0-13-11--X4
 pm . .. . .. . .. .. .. . .. . .. . .. ..

--------------------------------
--------------------------------
--------------------------------
-----3--------------------------
-2-1---222-2-2-1-3-2-4----------
-------000-0-----------1-3-2-4--
 trem. pm.   trem.............

--------------------------------
--------------------------------
--------------------------------
-----3--------------------------
-2-1---222-2-2-1-3-2-4-3-5-4-6--
-------000-0-----------1-3-2-4--
 trem. pm.   trem..... pm. . .


--------------------
--------------------
--------------------
-5--5--5------------
-4--4--4--4444-4-4--
-3--3--3--2222-2-2--
bend.  .

----------------------------
----------------------------
----------------------------
-5--5--5--------------------
-4--4--4--------------------
-3--3--3-2-1-0-2-1-0-2-1-0--
bend.  . trem.............


------------------------------
------------------------------
------------------------------
------------------------------
-7----------------------------
---6-4-3-1-0--4-3-1-0--3-1-0--X4
 Trem.......................

------------------------------------------------------
------------------------------------------------------
------------------------------------------------------
------------------------------------------------------
---4-5--------4-5------------4-5-------4-5-4-4-4-2-3--
-0-----3-4--0-----3-7-6-1--0-----3-4-0-----2-2-2-0-1--X2
 trem and pm.............................. pm. . . .


----------------------------------
----------------------------------
----------------------------------
----------------------------------
-7-------8-------7-------5--------
---6-0-6---6-0-6---6-0-6---4-0-4--X4

-----------------------------------------------
-----------------------------------------------
-----------------------------------------------
-----------------------------------------------
-----------------------------------------------
-11-0000-11-0000-11-0000-11-13-12-11-12-11-10--
 trem........................................

-----------------------------------------
-----------------------------------------
-----------------------------------------
-----------------------------------------
----------------------------2-1-0--------
-11-0000-11-0000-11-0000-11-------2-1-0--
 trem..................................

-----------------------------------------------
-----------------------------------------------
-----------------------------------------------
-----------------------------------------------
-----------------------------------------------
-11-0000-11-0000-11-0000-11-13-12-11-12-11-10--
 trem........................................

-----------------------------------------
-----------------------------------------
-----------------------------------------
-----------------------------------------
----------------------------2-1-0--------
-11-0000-11-0000-11-0000-11-------2-1-0--
 trem..................................


-------------------------------------------------------------------------------
-------------------------------------------------------------------------------
-------------------------------------------------------------------------------
-------ph-------------------ph-------------------8-----------------------------
-2-222-6--2-222-2-6-2-2-222-6--2-222-3-6-3-2-222-6-2-222-3-6-3-----------------
-0-000----0-000-1-4-1-0-000----0-000-1-4-1-0-000---0-000-1-4-1-0-7-1-4-8-7-1-2-
 pm...    . ... . . . . ...    . ... . . . . ...   . ... . . . trem and pm....

--------------------------------------------------------------------------------
--------------------------------------------------------------------------------
--------------------------------------------------------------------------------
-------ph-------------------ph-------------------8------------------------------
-2-222-6--2-222-2-6-2-2-222-6--2-222-3-6-3-2-222-6-2-222-3-6-3-9-3-6-10-9-3-4-3-
-0-000----0-000-1-4-1-0-000----0-000-1-4-1-0-000---0-000-1-4-1-7-1-4--8-7-1-2-1-
 pm...    . ... . . . . ...    . ... . . . . ...   . ... . . . pm. .  . . . . .

-----------------------------------------------------------
-----------------------------------------------------------
-----------------------------------------------------------
-----------------------------------------------------------
-2-22222-2-2-2--2-22222-2-2-2--2-222222-2-2-2-2-4---5---6--
-0-00000-0-0-0--0-00000-0-0-0--0-000000-0-0-0-0---3---4----X4
 pm..... . . .  . ..... . . .  . ...... . . . .

----------------------------------------------------------
----------------------------------------------------------
----------------------------------------------------------
-9-999-9-999-8-888-8-888-12-121212-12-121212-:-:::-:-:::--
-7-777-7-777-6-666-6-666-10-101010-10-101010-9-999-9-999--
----------------------------------------------------------X2
   pm.   ...   ...   ...    ......    ......   ...   ...
: = 11th fret.

----------------------------------------------------------
----------------------------------------------------------
-9-999-9-999-8-888-8-888-12-121212-12-121212-:-:::-:-:::--
----------------------------------------------------------
-7-777-7-777-6-666-6-666-10-101010-10-101010-9-999-9-999--
----------------------------------------------------------X2
   pm.   ...   ...   ...    ......    ......   ...   ...
: = 11th fret.

----------------------------------------------
----------------------------------------------
-oooooooo-99999999-1313131313131313-::::::::--
----------------------------------------------
-77777777-66666666-1010101010101010-99999999--
----------------------------------------------
 trem.......................................
: = 12th fret.
o = 10th fret.

---------------------------------------
---------------------------------------
-oooooooo-99999999-1313131313131313-:--
---------------------------------------
-77777777-66666666-1010101010101010-9--
---------------------------------------
 trem.................................
: = 12th fret.
o = 10th fret.

------------------------------------------
------------------------------------------
------------------------------------------
------------------------------------------
-2-6-5-5555555555555-2-5-4-4444444444444--
-0-4-3-3333333333333-0-3-2-2222222222222--X2

------------------------------------------
------------------------------------------
------------------------------------------
------------------------------------------
-2-6-5-5555555555555-2-5-4-4444444444444--
-0-4-3-3333333333333-0-3-2-2222222222222--X2
 pm. .               . . .

--------------------
--------------------
--------------------
-5--5--5------------
-4--4--4--4444-4-4--
-3--3--3--2222-2-2--
bend.  .

---------------------
---------------------
---------------------
-5--5--5-------------
-4--4--4-4444-33-22--
-3--3--3-2222-11-00--
bend.  . pm.. .. ..

THE END

any corrections mail em to: septic_flesh241@hotmail.com

  Visit MetalTabs.com for more metal tablature

bottom separator

Contact Us | Privacy Policy | Disclaimer | Legal Notice
Copyright © 2001-2014 MetalTabs.com. All Rights Reserved.