top separator

Home

Forum

What's New

Submit a Tab

FAQ

Links

Contact Us

Link to Us

MuSpy.com

MetalTabs.com logo

Bands

0-9

A

B

C

D

E

F

G

H

I

J

K

L

M

N

O

P

Q

R

S

T

U

V

W

X

Y

Z

Search

What

Where
 

Enthroned - "At the sound of the millenium black bells" Guitar Tab

Plain Text Version
More Enthroned Tabs

Hits: 2283
Rated: 1.00 out of 5 (1 vote)
Updated: 2006-04-12 03:26:52

 

By:

sendpm.gif

email.gif

Important note
This tab is available online because we obtained explicit permission from Enthroned or their label.


#----------------------------------PLEASE NOTE---------------------------------#
#This file is the author's own work and represents their interpretation of the #
#song. You may only use this file for private study, scholarship, or research. #
#Unless specified otherwise, this is NOT an official tab from the band members.#
#------------------------------------------------------------------------------#

  Visit MetalTabs.com for more metal tablature
  
Copyright (c)   Osmose (1995)
Version 1.0 - 2006-3-28

Transcribed By: Benjamin Gheysels
Email:          benjamingheysels@hotmail.com


.  - palm mute           /  - slide up to
\  - slide down to       ~  - vibrato
h  - hammer on           b  - Bend
p  - pull off            Suffixes for bend
t  - tap                 f  - full bend    h - half bend
ph - pinched harmonic    q  - quarter bend t - tap bend
*  - see comment         ^  - Hold bend    r release bend
x  - Stuccatto           ~  - vibrato bend
,  - slight palm mute    () - ghost note, sustained note
"  - tremolo note        <> - Trill
ps - pick scrape

Tuning E A D G B E

Riff 1: play 4 times
|-------------------------|
|-------------------------|
|-------------------------|
|------------------5-4----|
|---7----3----2----3-2----|
|---5----1----0-----------|

Riff 2: play 3 times
|-------------------------------------------------|
|-------------------------------------------------|
|-------------------------------------------------|
|---------7-----5-4-5----4--5-----------7----5----|
|---2-----5-----3-2-3----2--3---2-------5----3----|
|---0---------------------------0-----------------|

Riff 3: play 4 times
|--------------------------------------------|
|--------------------------------------------|
|--------------------------------------------|
|--------------------------------------------|
|---9-----7--10-----7--9------7--10----12----|
|---7-----5---8-----5--7------5---8----10----|

Riff 4: play 6 times
|---------------------------------------------------------|
|---------------------------------------------------------|
|---------------------------------------------------------|
|---4-----4-----4------5------4-----4-----4------5---7----|
|---2--0--2--0--2--0---3------2--0--2--0--2--0---3---5----|
|---------------------------------------------------------|

Riff 5: play 6 times
|---------------------------------|
|---------------------------------|
|---------------------------------|
|---9----10-9----7---5---4-5-4----|
|---7-----8-7----5---3---2-3-2----|
|---------------------------------|

Riff 6: play 8 times (this is also the background for the solo)
|----------------------------------------|
|----------------------------------------|
|----------------------------------------|
|--------------------------5---4---------|
|---2-----5----4------2----3---2---5-----|
|---0-----3----2------0------------3-----|

solo
       play this 4 times             then this 2 times
|----------------------------------|---------------------------------|
|-------------------------13-12-8--|----------------------11-10------|
|---9hold---12-11---9hold----------|--12-11-9---11-9---12-------12---|
|----------------------------------|---------------------------------|
|----------------------------------|---------------------------------|
|----------------------------------|---------------------------------|

(continued)
|-----------------------------------------------------------------------------|
|---------------------11-10---------------------------------------------------|
|-12-11-9---11-9---12-------12---11-14-12-11---12-11-9---11-9--11--12-11-9-11-|
|-----------------------------------------------------------------------------|
|-----------------------------------------------------------------------------|
|-----------------------------------------------------------------------------|

Riff 1: play 4 times

Riff 3: play 4 times

Riff 2: play 4 times

end with:
|--------|
|--------|
|--------|
|---2----|
|---2----|
|---0----|

That's it! Enjoy!

  Visit MetalTabs.com for more metal tablature

bottom separator

Contact Us | Privacy Policy | Disclaimer | Legal Notice
Copyright © 2001-2014 MetalTabs.com. All Rights Reserved.