top separator

Home

Forum

What's New

Submit a Tab

FAQ

Links

Contact Us

Link to Us

MetalTabs.com logo

Bands

0-9

A

B

C

D

E

F

G

H

I

J

K

L

M

N

O

P

Q

R

S

T

U

V

W

X

Y

Z

Search

What

Where
 

Celtic Frost - "Morbid Tales (Metal Blade release only)" Guitar Tab

Plain Text Version
More Celtic Frost Tabs

Hits: 3789
Rated: 3.67 out of 5 (3 votes)
Updated: 2006-04-12 03:16:49

 

By:

sendpm.gif

email.gif

Important note
This tab is available online because we obtained explicit permission from Celtic Frost or their label.


#----------------------------------PLEASE NOTE---------------------------------#
#This file is the author's own work and represents their interpretation of the #
#song. You may only use this file for private study, scholarship, or research. #
#Unless specified otherwise, this is NOT an official tab from the band members.#
#------------------------------------------------------------------------------#

  Visit MetalTabs.com for more metal tablature
  
Band:  Celtic Frost
Album: Morbid Tales
Song:  Morbid Tales

Copyright (c)  Noise Records 1984
Version 1.0 - 3/25/2006

Transcribed By: Zach Bernard (A.K.A. Antisocial)
Email:          UnrealBodom@gmail.com


.  - palm mute           /  - slide up to
\  - slide down to       ~  - vibrato
h  - hammer on           b  - Bend
p  - pull off            Suffixes for bend
t  - tap                 f  - full bend    h - half bend
ph - pinched harmonic    q  - quarter bend t - tap bend
*  - see comment         ^  - Hold bend    r release bend
x  - Stuccatto           ~  - vibrato bend
,  - slight palm mute    () - ghost note, sustained note
"  - tremolo note        <> - Trill

Tuning E A D G B E

Intro:
|--------------------------------------------------------------|
|--------------------------------------------------------------|
|--------------------------------------------------------------| Repeat once
|--------------------------------------------------------------|
|-4/5-2--3--------4/5-2--4--------4/5-2--3--------4/5-0--2-----|
|-2/3-0--1--------2/3-0--2--------2/3-0--1--------2/3-2--4-----|

Riff 1:
I know that this part is wrong, so if you know the correct part,
PLEASE email it to me.
|-----------------------------|
|-----------------------------|
|-----------------------------| Repeat three times
|----5----6----5----5-4-3-2---|
|----3----4----3----3-2-1-0---|
|-00---00---00---00-----------|
  ..   ..   ..   ..

Riff 2:
|-----------------------------------------------|
|-----------------------------------------------|
|----------------------------------------------.| Repeat twice
|----------------------------------------------.|
|-222222222222-4-5-6-------222222222222-4-5-6---|
|-000000000000-2-3-4-------000000000000-2-3-4---|
  ............             ............
   By Burial this Night     Nitocrys weaves the spell

Riff 3:
|-------------------------------------------------------------------|
|-------------------------------------------------------------------|
|-------------------------------------------------------------------|
|-333333333333--22222222223333333333444444444444--------------------|
|-333333333333--00000000003333333333222222222222--------------------|
|-------------------------------------------------------------------|

|-------------------------------------------------------------------|
|-------------------------------------------------------------------|
|-------------------------------------------------------------------|
|-22222222223333333333444444444444--22222222223333333333444444444444|
|-00000000003333333333222222222222--00000000003333333333222222222222|
|-------------------------------------------------------------------|

Chorus:
|----------------------------------------------------------------|
|----------------------------------------------------------------|
|----------------------------------------------------------------| Repeat once
|-666666666666666666666666777777777766666666--6--5--4------------|
|-444444444444444444444444555555555544444444--4--3--2------------|
|----------------------------------------------------------------|
         Agony and Nightmare            To Yog Sothoth They Noan

Riff 2

Riff 3

Chorus

Riff 1


Riff 4.1:
|---------------------------------|
|---------------------------------|
|---------------------------------| Repeat twice
|----7----8----7----7-6-5---------|
|----5----6----5----5-4-3---------|
|-00---00---00---00---------------|
  ..   ..   ..   ..
Riff 4.2:
|---------------------------------|
|---------------------------------|
|---------------------------------| Repeat twice
|----7----8----7----8-9-10--------|
|----5----6----5----6-7-8---------|
|-00---00---00---00---------------|
  ..   ..   ..   ..

I'm no good at tabbing solos, but I do know that the beginning of
the solo is just going up gradually on the B string while doing
hammer-ons and pull-offs.

Solo Rythmic Guitar (If Necesary) Is Same As Chorus.

Riff 2

Riff 3

Chorus

Riff 2
END

  Visit MetalTabs.com for more metal tablature

bottom separator

Contact Us | Privacy Policy | Disclaimer | Legal Notice
Copyright © 2001-2014 MetalTabs.com. All Rights Reserved.