top separator

Home

Forum

What's New

Submit a Tab

FAQ

Links

Contact Us

Link to Us

MuSpy.com

MetalTabs.com logo

Bands

0-9

A

B

C

D

E

F

G

H

I

J

K

L

M

N

O

P

Q

R

S

T

U

V

W

X

Y

Z

Search

What

Where
 

Malevolent Creation - "The Will To Kill" Guitar Tab

Plain Text Version
More Malevolent Creation Tabs

Hits: 4911
Rated: 5.00 out of 5 (2 votes)
Updated: 2007-04-11 22:37:03

 

By:

Ema

sendpm.gif

email.gif

Important note
This tab is available online because we obtained explicit permission from Malevolent Creation or their label.


#----------------------------------PLEASE NOTE---------------------------------#
#This file is the author's own work and represents their interpretation of the #
#song. You may only use this file for private study, scholarship, or research. #
#Unless specified otherwise, this is NOT an official tab from the band members.#
#------------------------------------------------------------------------------#

  Visit MetalTabs.com for more metal tablature
  
THE WILL TO KILL
 By MALEVOLENT CREATION
 (Music: Fasciana  Lyrics: Symons)
 As Performed On THE WILL TO KILL 2002
 NUCLEAR BLAST Records

 Tabbed By Ema

 Tuning B


 RIFF 1 INTRO x1

|-----------------------------------------------|
|-----------------------------------------------|
|-----------------------------------------------|
|-------44444-------55555-------44444-----33333-|
|------------------------------------55555------|
|-0-2-1-------0-2-1-------0-2-1-----------------|
  . . .       . . .       . . .


|-----------------------------------------------|
|-----------------------------------------------|
|-----------------------------------------------|
|-------44444-------55555-------555557777766666-|
|-----------------------------------------------|
|-0-2-1-------0-2-1-------0-2-1-----------------|
  . . .       . . .       . . .



 RIFF 1A MAIN x1

|-----------------------------------------------|
|-----------------------------------------------|
|-----------------------------------------------|
|-------44444-------55555-------44444-----33333-|
|------------------------------------55555------|
|-0-2-1-------0-2-1-------0-2-1-----------------|
  . . .       . . .       . . .


|-----------------------------------------------|
|-----------------------------------------------|
|-----------------------------------------------|
|-------44444-------55555-------555557777766666-|
|-----------------------------------------------|
|-0-2-1-------0-2-1-------0-2-1-----------------|
  . . .       . . .       . . .


|-----------------------------------------------|
|-----------------------------------------------|
|-----------------------------------------------|
|-------44444-------55555-------444445555533333-|
|-----------------------------------------------|
|-0-2-1-------0-2-1-------0-2-1-----------------|
  . . .       . . .       . . .


|-----------------------------------------------|
|-----------------------------------------------|
|-----------------------------------------------|
|-------44444-------55555-------555557777766666-|
|-----------------------------------------------|
|-0-2-1-------0-2-1-------0-2-1-----------------|
  . . .       . . .       . . .



 RIFF 2 VERSE x2

|-----------------------------------------------|
|-----------------------------------------------|
|-----------------------------------------------|
|--------------------------44444----------33333-|
|-------------------------------5555555555------|
|-2222222222222222222222222---------------------|
  .........................


|-----------------------------------------------|
|-----------------------------------------------|
|-----------------------------------------------|
|--------------------------44444----------77777-|
|-------------------------------5555555555------|
|-2222222222222222222222222---------------------|
  .........................



 RIFF 1A MAIN x1

 RIFF 2 VERSE x2


 FILL 1

|FASCIANA
|------------------------------------------|
|------------------------------------------|
|------------------------------------------|
|------------------------------------------|
|------------------------------------------|
|-2222222222222222222222222222222222222222-|
| ........................................
|
|BARRETT
|------------------------------------------|
|------------------------------------------|
|------------------------------------------|
|------------------------------------------|
|-4----------------------------------------|
|-2----------------------------------------|




 RIFF 3A INTO SOLO x1

|FASCIANA
|-----------------------------|-----------------------------|
|-----------------------------|-----------------------------|
|-----------------------------|-----------------------------|
|-----------------------------|-----------------------------|
|-4-----5---4-----------------|-4-----5---4-----------------|
|-22222---2---2-2-222-5-3-2-3-|-22222---2---2-2222333555333-|
| .....   .   .   ... . . . .   .....   .   .  ............
|
|BARRETT
|-----------------------------|-----------------------------|
|-----------------------------|-----------------------------|
|-----------------------------|-----------------------------|
|-----------------------------|-----------------------------|
|-4---------------------------|-4---------------------------|
|-2-------------------5-3-2-3-|-2--------------222333555333-|
   x                  . . . .    x



 SOLO 1 BARRETT

  S.H. WAH & BAR WAH & BAR/\/\/\/\/\/\/\/\/\/\/\/\/\/\ WAH_
|----------------------------------------------------------------------------|
|----------------------------------------------------------------15-14-12-14-|
|-3///\\\\\\\\---0h5p4p0h5p4p0h5p4p0h5p4p0h5p4p0h5p4p0-----------------------|
|------------------------------------------------------2/4b^^^---------------|
|----------------------------------------------------------------------------|
|----------------------------------------------------------------------------|

              WAH___________________________________  A.H.    WAH & BAR
|----------------------------------------------------------------------------|
|-12-------------------------------------------------------------------------|
|----14b^^^---------------------------------------------------0//\\\\\\\-----|
|-------------11---12--11--9-------------------------------------------------|
|-----------------------------12--11------14--12--11--9b^^^------------------|
|-------------------------------------14-------------------------------------|
                x             ..  ..  ..  ..  ..  ..


 RIFF 3 x2 UNDER SOLO

|-----------------------------|-----------------------------|
|-----------------------------|-----------------------------|
|-----------------------------|-----------------------------|
|-----------------------------|-----------------------------|
|-4-----5---4-----------------|-4-----5---4-----------------|
|-22222---2---2-2-222-5-3-2-3-|-22222---2---2-2222333555333-|
  .....   .   .   ... . . . .   .....   .   .  ............



 RIFF 3B VERSE x1

|-----------------------------|-----------------------------|
|-----------------------------|-----------------------------|
|-----------------------------|-----------------------------|
|-----------------------------|-----------------------------|
|-4-----5---4-----------------|-4-----5---4--------77777777-|
|-22222---2---2-2-222-5-3-2-3-|-22222---2---2-2-222---------|
  .....   .   .   ... . . . .   .....   .   .  ............


|-----------------------------|-----------------------------|
|-----------------------------|-----------------------------|
|-----------------------------|-----------------------------|
|-----------------------------|-----------------------------|
|-4-----5---4-----------------|-4-----5---4-----------------|
|-22222---2---2-2-222-5-3-2-3-|-22222---2---2-2222333555333-|
  .....   .   .   ... . . . .   .....   .   .  ............



 RIFF 4 CHORUS x1

|-----------------------------|-----------------------------|
|-----------------------------|-----------------------------|
|-----------------------------|-----------------------------|
|-----------------------------|-----------------------------|
|-9---------------------------|-4-----5---4-----------------|
|-777777777885555557733333355-|-22222---2---2-2-222-5-3-2-3-|
  ...........................   .....   .   .   ... . . . .


|-----------------------------|-----------------------------|
|-----------------------------|-----------------------------|
|-----------------------------|-----------------------------|
|-----------------------------|-----------------------------|
|-9---------------------------|-4-----5---4-----------------|
|-777777777885555557733333355-|-22222---2---2-2222333555333-|
  ...........................   .....   .   .  ............


|-----------------------------|-----------------------------|
|-----------------------------|-----------------------------|
|-----------------------------|-----------------------------|
|-----------------------------|-----------------------------|
|-9---------------------------|-4-----5---4-----------------|
|-777777777885555557733333355-|-22222---2---2-2-222-5-3-2-3-|
  ...........................   .....   .   .   ... . . . .


|FASCIANA
|-----------------------------|
|-----------------------------|
|-----------------------------|
|-----------------------------|
|-9---------------------------|
|-777777777885555557733333355-|
| ...........................
|
|BARRETT
|-----------------------------|
|-----------------------------|
|-----------------------------|
|-----------------------------|
|-9-------10-7-----9-5-----7--|
|-7--------8-5-----7-3-----5--|




 RIFF 3A INTO SOLO x1


 SOLO 2 FASCIANA
  WAH_____________________________________________________
|----------------------------------------------------------------------------|
|----------------------------------------------------------------------------|
|-11h12p11h12p11h12p11h12p11h14p11h12p11h12p11h12p11h12p11-12-14-15-14-15-17-|
|----------------------------------------------------------------------------|
|----------------------------------------------------------------------------|
|----------------------------------------------------------------------------|

                                      WAH & BAR/\/\/\/\/\/\/\/\/\/\/\/\/\/\/\
|-----------------------------------------------------------------------------|
|-----------------------------------------------------------------------------|
|-15-17-18-17-18-20-18-20-21-20b^^^---0h23p20p0h23p20p0h23p20p0h23p20p0h23p20-|
|-----------------------------------------------------------------------------|
|-----------------------------------------------------------------------------|
|-----------------------------------------------------------------------------|

  WAH & BAR/\/\/\/\/\/\/\/\/\/\/\/\/\/\/\ WAH & BAR  N.H. BAR
|------------------------------------------------------------------------|
|------------------------------------------------------------------------|
|-0h23p20p0h23p20p0h23p20p0h23p20p0h23p20-0///\\\\\\h17//\/\/\/\/\\\-----|
|------------------------------------------------------------------------|
|------------------------------------------------------------------------|
|------------------------------------------------------------------------|




 RIFF 3 x2 UNDER SOLO


 RIFF 3B VERSE x1

 RIFF 4 CHORUS x1


 RIFF 5A INTO INTERLUDE x2

|FASCIANA
|---------------------------------|---------------------------------|
|---------------------------------|---------------------------------|
|---------------------------------|---------------------------------|
|---------------------------------|---------------------------------|
|---------------------------------|---------------------------------|
|-2-1-0-3-2-1-2-1-0-3-2-1-2-1-2-1-|-2-1-0-3-2-1-2-1-3-1-2-3-4-3-4-5-|
| . . . . . . . . . . . . . . . .   . . . . . . . . . . . . . . . .
|
|BARRETT
|---------------------------------|---------------------------------|
|---------------------------------|---------------------------------|
|---------------------------------|---------------------------------|
|---------------------------------|---------------------------------|
|-4-------------------------------|-4-------------------------------|
|-2-----------------------2-1-2-1-|-2---------------3-1-2-3-4-3-4-5-|
   x                      . . . .    x              . . . . . . . .



 RIFF 5 INTERLUDE x4

|---------------------------------|---------------------------------|
|---------------------------------|---------------------------------|
|---------------------------------|---------------------------------|
|---------------------------------|---------------------------------|
|---------------------------------|---------------------------------|
|-2-1-0-3-2-1-2-1-0-3-2-1-2-1-2-1-|-2-1-0-3-2-1-2-1-3-1-2-3-4-3-4-5-|
  . . . . . . . . . . . . . . . .   . . . . . . . . . . . . . . . .



 LEAD

|FASCIANA
| WAH                               WAH
|---------------------------------|---------------------------------|
|---------------------------------|---------------------------------|
|---------------------------------|---------------------------------|
|---------------------------------|---------------------------------|
|/9b^^^^^^^^^^^^^^^---------------|/8b^^^^^^^^^^^^^^^---------------|
|---------------------------------|---------------------------------|
|
|
|BARRETT
|---------------------------------|---------------------------------|
|---------------------------------|---------------------------------|
|---------------------------------|---------------------------------|
|---------------------------------|---------------------------------|
|---------------------------------|---------------------------------|
|-2-1-0-3-2-1-2-1-0-3-2-1-2-1-2-1-|-2-1-0-3-2-1-2-1-3-1-2-3-4-3-4-5-|
| . . . . . . . . . . . . . . . .   . . . . . . . . . . . . . . . .
|
|3RD GUITAR
|---------------------------------|---------------------------------|
|---------------------------------|---------------------------------|
|---------------------------------|---------------------------------|
|---------------------------------|---------------------------------|
|-4-------------------------------|-3-------------------------------|
|-2-------------------------------|-1-------------------------------|


|FASCIANA
| WAH                               WAH
|---------------------------------|---------------------------------|
|---------------------------------|---------------------------------|
|---------------------------------|---------------------------------|
|---------------------------------|---------------------------------|
|/9b^^^^^^^^^^^^^^^---------------|/8b^^^^^^^^^^^^^^^---------------|
|---------------------------------|---------------------------------|
|
|
|BARRETT
|---------------------------------|---------------------------------|
|---------------------------------|---------------------------------|
|---------------------------------|---------------------------------|
|---------------------------------|---------------------------------|
|---------------------------------|---------------------------------|
|-2-1-0-3-2-1-2-1-0-3-2-1-2-1-2-1-|-2-1-0-3-2-1-2-1-3-1-2-3-4-3-4-5-|
| . . . . . . . . . . . . . . . .   . . . . . . . . . . . . . . . .
|
|3RD GUITAR
|---------------------------------|---------------------------------|
|---------------------------------|---------------------------------|
|---------------------------------|---------------------------------|
|---------------------------------|---------------------------------|
|-4-------------------------------|-3-------------------------------|
|-2-------------------------------|-1-------------------------------|


|FASCIANA
| WAH                               WAH
|---------------------------------|---------------------------------|
|---------------------------------|---------------------------------|
|---------------------------------|---------------------------------|
|/7b^^^^^^^^^^^^^^^---------------|/6b^^^^^^^^^^^^^^^---------------|
|---------------------------------|---------------------------------|
|---------------------------------|---------------------------------|
|
|
|BARRETT
|---------------------------------|---------------------------------|
|---------------------------------|---------------------------------|
|---------------------------------|---------------------------------|
|---------------------------------|---------------------------------|
|-4-------------------------------|-3-------------------------------|
|-2-------------------------------|-1-------------------------------|


|FASCIANA
| WAH                               WAH
|---------------------------------|---------------------------------|
|---------------------------------|---------------------------------|
|---------------------------------|---------------------------------|
|/7b^^^^^^^^^^^^^^^---------------|/6b^^^^^^^^^^^^^^^---------------|
|---------------------------------|---------------------------------|
|---------------------------------|---------------------------------|
|
|
|BARRETT
|---------------------------------|---------------------------------|
|---------------------------------|---------------------------------|
|---------------------------------|---------------------------------|
|---------------------------------|---------------------------------|
|-4-------------------------------|-3-------------------------------|
|-2-------------------------------|-1-------------------------------|



|FASCIANA OVER RIFF 5 BEGINNING
|  WAH          ECHO
|---------------------------------|
|---------------------------------|
|---------------------------------|
|-/6b^^^\\\-----------------------|
|---------------------------------|
|---------------------------------|




 RIFF 5 INTERLUDE x4

 RIFF 1 BREAK x1


 SOLO 3 FASCIANA

|---------------------------------------------------------------------------|
|------------------------------------------------------------------/7b^^^---|
|-/4b^^^---4-2-4-4/5b^^^---5-4-5-5/7b^^^---7-5-7-7/9-7-9-9/11-9-11----------|
|---------------------------------------------------------------------------|
|---------------------------------------------------------------------------|
|---------------------------------------------------------------------------|


|----------------------------------------------------------------------------|
|-7-6-7-7/9b^^^---9-7-9-9/11b^^^---11-9-11-11/14b^^^-13b^^^------------------|
|----------------------------------------------------------------------------|
|----------------------------------------------------------------------------|
|-------------------------------------------------------------9b^^^---9--11--|
|----------------------------------------------------------------------------|


|------------------------------------------------------------------------|
|------------------------------------------------------------------------|
|------------------------------------------------------------------------|
|------------------------------/14b^^^---------11-----12--11-------------|
|-11/12--12/14--12/14--12--11------------9--9------9----------9--12--11--|
|------------------------------------------------------------------------|
                                            .      .          .  ..  ..

|--------------------------|
|--------------------------|
|--------------------------|
|--------------------------|
|-12121212121111111111-----|
|--------------------------|




 RIFF 1A x1 UNDER SOLO 3

 RIFF 2 VERSE x2


 RIFF 1B OUTRO x1

|FASCIANA
|-----------------------------------------------|
|-----------------------------------------------|
|-----------------------------------------------|
|-------44444-------55555-------44444-----33333-|
|------------------------------------55555------|
|-0-2-1-------0-2-1-------0-2-1-----------------|
| . . .       . . .       . . .
|
|BARRETT
|-----------------------------------------------|
|-----------------------------------------------|
|-----------------------------------------------|
|-----------------------------------------------|
|-----3-----------3-----------3-----------------|
|-0-2-1-------0-2-1-------0-2-1-----------------|
  . . .x      . . .x      . . .x


|BOTH
|-----------------------------------------------|
|-----------------------------------------------|
|-----------------------------------------------|
|-------44444-------55555-------4444477777------|
|-----------------------------------------4-4-4-|
|-0-2-1-------0-2-1-------0-2-1-----------2-2-2-|
  . . .       . . .       . . .           . . .



 FILL 2 END

|-------|
|-------|
|-------|
|-------|
|-4-----|
|-2-----|
   x

  Visit MetalTabs.com for more metal tablature

bottom separator

Contact Us | Privacy Policy | Disclaimer | Legal Notice
Copyright © 2001-2014 MetalTabs.com. All Rights Reserved.