top separator

Home

Forum

What's New

Submit a Tab

FAQ

Links

Contact Us

Link to Us

MuSpy.com

MetalTabs.com logo

Bands

0-9

A

B

C

D

E

F

G

H

I

J

K

L

M

N

O

P

Q

R

S

T

U

V

W

X

Y

Z

Search

What

Where
 

Atheist - "Brains" Bass Tab

Plain Text Version
More Atheist Tabs

Hits: 3372
Rated: 4.29 out of 5 (7 votes)
Updated: 2007-04-11 22:58:23

 

By:

epitaph

sendpm.gif

email.gif

Important note
This tab is available online because we obtained explicit permission from Atheist or their label.


#----------------------------------PLEASE NOTE---------------------------------#
#This file is the author's own work and represents their interpretation of the #
#song. You may only use this file for private study, scholarship, or research. #
#Unless specified otherwise, this is NOT an official tab from the band members.#
#------------------------------------------------------------------------------#

  Visit MetalTabs.com for more metal tablature
  
Band: Atheist
Album: Unquestionable Presence
Song: Brains

Copyright (c) Active Records 1991 / Relapse Records 2005
Version 3.0 - 17th of May, 2006 - 30th of March, 2007 (Latest corrections)

Transcribed By: Lassi Nurminen (aka, epitaph)
Email: Gaborik10@hotmail.com / Gaborik@welho.com

EADG (From low to high)

0:00
|-----------------------------|
|-2---------0---2---------0---|
|---1-2-----------1-2-------3-|
|-------0-1-----------0-1-----|

0:05
|------------------------|
|-2--------0---------0-1-| Four
|---1-2------2-----------| Times
|-------0-1----1-0-1-----|

0:18
|---------------------------------|
|-------------555-----------------| Twice
|-777-------------777-------------|
|-----666-777---------666-777-333-|

0:23
|------------------|
|-------55---------| Twice
|-7--------7-------|
|---6-7------6-7-3-|

0:29
|---------------------------------|
|-------------555-----------------| Twice
|-777-------------777-------------|
|-----666-777---------666-777-333-|

0:34
|-------------------|
|-------------------|
|-5---5--8----11----|
|---4---4--7-----10-|

0:39 Tony improvised alot here, this is just how I'd play the whole section..
|------------------------------------------------------------------------7---|
|----------------3-------3---6-------6---6-------6---6-------6---6---------6-|
|-11\5-------5-----2---2---2---5---5---5---5---5---5---5---5---5---5---5-----|
|------4-0-4---4-----1-----------4-----------4-----------4-----------4-------|

|---------------------------------------------------------------------7---|
|-------------3-------3---6-------6---6-------6---6-------6---6---------6-|
|-5-------5-----2---2---2---5---5---5---5---5---5---5---5---5---5---5-----|
|---4-0-4---4-----1-----------4-----------4-----------4-----------4-------|

|----------------------------------------------------------------|
|-------------3-------3---6-------6---6-------6---6---5--4---3---|
|-5-------5-----2---2---2---5---5---5---5---5---5---5---4--3---2-|
|---4-0-4---4-----1-----------4-----------4----------------------|

0:56
|----------------------------------|
|-----2-2--------------------------| Twice
|---------------------7------5-7-5-|
|-0---------0-0-3/5-5---0-00-------|

1:00
|----7-7---77----6-6---66------------|
|------------------------------------| Slap & Pop
|-5------5-----4-----4-----5--4--3-1-|
|------------------------------------|

1:06
|-------------------|
|-------2-1-----3h5-| Four
|---0h1-----0-------| Times
|-3-----------4-----|

1:15
|----------------------------------|
|-----2-2--------------------------| Twice
|---------------------7------5-7-5-|
|-0---------0-0-3/5-5---0-00-------|

1:18
|----7-7---77----6-6---66-------------|
|-------------------------------------| Slap & Pop
|-5------5-----4-----4-----5--4--3-1--|
|-------------------------------------|

1:25
|---------------------------------------------------------------------|
|-----------8---4---------8---4---------------8---4---------8---4-----|
|---------7---3---3-----7---3---3-----------7---3---3-----7---3---3---|
|-0-5-6-8-----------4-5-----------4-0-5-6-8-----------4-5-----------4-|

|---------------------------------------------------------|
|-----------8---4---------8---4---------8---4---------8---|
|---------7---3---3-----7---3---3-----7---3---3-----7---3-|
|-0-5-6-8-----------4-5-----------4-5-----------4-5-------|

|-----------3-------------3-------------3---------|
|-4-------2---2-4-------2---2-4-------2---2-4-----|
|---3---3---------3---3---------3---3---------3---|
|-----2-------------2-------------2-------------2-|

1:39
|-----------------------|
|---------6-------------|
|-5---8---------------4-|
|-------------3---6-----|

1:46
|----------------(Place crazy ass fill..)-------------------------|
|-----------------6-6-6-6-6-6-6-6---------------------------------|
|-5-5-5-5-8-8-8-8---------------------------------4-4-4-4-444-444-|
|---------------------------------3-3-3-3-6-6-6-6-----------------|

1:53
|-------------------|
|-------2-1-----3h5-| Four
|---0h1-----0-------| Times
|-3-----------4-----|

2:02
|---------------------------------------------------------------------------|
|----0h2---------------0h2---------------0h2---------------0h2--------------|
|-------3--0h2---0h2------3--0h2---0h2------3--0h2---0h2------3--0h2---0h2--|
|-0-----------3-----0-----------3-----0-----------3-----0-----------3-----0-|

2:14-2:20
|-------------------------------------------------------|
|-------------------------------------------------------|
|-0h2-------------0h2-------------0h2-------------0h2---|
|-----3-3-3-3-3-3-----0-0-0-0-0-0-----3-3-3-3-3-3-----0-|

|-----------------------------------------------------|
|-----------------------------------------------------|
|-0h2-------------0h2-------------0h2-------------0h2-|
|-----3-3-3-3-3-3-----0-0-0-0-0-0-----3-3-3-3-3-3-----|

2:20
|-------------------------------------------------------|
|-------------------------------------------------------|
|-------------4-5-4-------------7-8-7-------------2-3-2-|
|-3-0-3-0-3-0-------6-5-6-5-6-5-------1-0-1-0-1-0-------|

|-------99-------99------99-|
|---------------------------| Slap & Pop
|---------------------------|
|-3p2p0----3p2p0----3p2p0---|

|-------------------------------------------------------|
|-------------------------------------------------------|
|-------------4-5-4-------------7-8-7-------------2-3-2-|
|-3-0-3-0-3-0-------6-5-6-5-6-5-------1-0-1-0-1-0-------|

|-------------------------------------|
|-------------------------------------|
|-------------------------------------|
|-3p2p0-2-0-3p2p0-2-0-3p2p0-2-0-3p2p0-|

2:39
|------------------------|
|-2--------0---------0-1-| Twice
|---1-2------2-----------|
|-------0-1----1-0-1-----|

2:45
|-------------------------|
|-2---------0-2-----------| Twice
|---1-2---------1-2-------|
|-------0-1---------0-1-0-|

2:51
|------------------|
|------------------|
|-5---5--8----11---|
|---4---4--7----10-|

2:54
|-------------------------------------13---13---13---13---|
|-----------------3-------3---6---------12---12---12---12-|
|-----5-------5-----2---2---2---5---5---------------------|
|-12\---4-0-4---4-----1-----------4-----------------------|

|-------------------------------------------------|
|-------------3-------3---6-------6---6-------6---|
|-5-------5-----2---2---2---5---5---5---5---5---5-|
|---4-0-4---4-----1-----------4-----------4-------|

|----------------------------------------------------------------|
|-------------3-------3---6-------6---6-------6---6---5--4---3---|
|-5-------5-----2---2---2---5---5---5---5---5---5---5---4--3---2-|
|---4-0-4---4-----1-----------4-----------4----------------------|

3:08
|----------------(Place crazy ass fill..)-------------------------|
|-----------------6-6-6-6-6-6-6-6---------------------------------|
|-5-5-5-5-8-8-8-8---------------------------------4-4-4-4-4-4-4-4-|
|---------------------------------3-3-3-3-6-6-6-6-----------------|

|-----------------------------------------------------------------|
|-----------------6-6-6-6-6-6-6-6---------------------------------|
|-5-5-5-5-8-8-8-8---------------------------------4-4-4-4-444-444-|
|---------------------------------3-3-3-3-6-6-6-6-----------------|

3:23 Fade with this..
|-----------------------------------|
|-----------7-------------8---------|
|---------6-------------7-----9-----|
|-0-5-6-0-----9-6-9-5-6-----8---8-5-|

Cheers!

  Visit MetalTabs.com for more metal tablature

bottom separator

Contact Us | Privacy Policy | Disclaimer | Legal Notice
Copyright © 2001-2014 MetalTabs.com. All Rights Reserved.