top separator

Home

Forum

What's New

Submit a Tab

FAQ

Links

Contact Us

Link to Us

MetalTabs.com logo

Bands

0-9

A

B

C

D

E

F

G

H

I

J

K

L

M

N

O

P

Q

R

S

T

U

V

W

X

Y

Z

Search

What

Where
 

Battlelore - "Buccaneers Inn" Guitar Tab

Plain Text Version
More Battlelore Tabs

Hits: 2203
Updated: 2006-04-12 03:01:47

 

By:

sendpm.gif

email.gif

Important note
This tab is available online because we obtained explicit permission from Battlelore or their label.


#----------------------------------PLEASE NOTE---------------------------------#
#This file is the author's own work and represents their interpretation of the #
#song. You may only use this file for private study, scholarship, or research. #
#Unless specified otherwise, this is NOT an official tab from the band members.#
#------------------------------------------------------------------------------#

  Visit MetalTabs.com for more metal tablature
  
From : gomaaz

Artist: Battlelore
Song: Buccaneers Inn

This is my first tab. So don't start beating me ;).
Buccaneers Inn is a very cool song and didn't find it as a tap
on the net, so I started to figure out the tabs.
Hope it's correct and watch for the tuning ;)

    Intro (Figure 1)

  D|----------------------------------------------|
  A|----------------------------------------------|
  F|----------------------------------------------|    repeat 4X
  C|----11-----7-----9-----11-----7-----9--\6-----|
  G|----11-----7-----9-----11-----7-----9--\6-----|
  C|----11-----7-----9-----11-----7-----9--\6-----|

 (Figure 2)
D|---------------------------------------------------------|
A|---------------------------------------------------------|
F|---------------------------------------------------------|
C|---11-11-11-11-11-11-11-14-14-14-14-14-16-16-16----------|
G|---11-11-11-11-11-11-11-14-14-14-14-14-16-16-16----------|
C|---11-11-11-11-11-11-11-14-14-14-14-14-16-16-16----------|
P.M  .  .  .  .  .  .  .  .  .  .  .  .  .  .  .
Numenorean corsairs.....
D|---------------------------------------------------------|
A|---------------------------------------------------------|
F|---------------------------------------------------------|
C|---11-11-11-11-11-11-11-14-14-14-14-14-7-7-6-6-----------|
G|---11-11-11-11-11-11-11-14-14-14-14-14-7-7-6-6-----------|
C|---11-11-11-11-11-11-11-14-14-14-14-14-7-7-6-6-----------|
P.M  .  .  .  .  .  .  .  .  .  .  .  .  . . . .
Your sons have stepped ashore...

repeat this 4x then...

(Figure 1)
D|----------------------------------------------|
A|----------------------------------------------|
F|----------------------------------------------|    repeat 4X
C|----11-----7-----9-----11-----7-----9--\6-----|
G|----11-----7-----9-----11-----7-----9--\6-----|
C|----11-----7-----9-----11-----7-----9--\6-----|
        To the habour of Umbar.............Like a wind we sail........

  (Figure 2)
D|---------------------------------------------------------|
A|---------------------------------------------------------|
F|---------------------------------------------------------|
C|---11-11-11-11-11-11-11-14-14-14-14-14-16-16-16----------|
G|---11-11-11-11-11-11-11-14-14-14-14-14-16-16-16----------|
C|---11-11-11-11-11-11-11-14-14-14-14-14-16-16-16----------|
P.M  .  .  .  .  .  .  .  .  .  .  .  .  .  .  .
Open your barrels.....
D|---------------------------------------------------------|
A|---------------------------------------------------------|
F|---------------------------------------------------------|
C|---11-11-11-11-11-11-11-14-14-14-14-14-7-7-6-6-----------|
G|---11-11-11-11-11-11-11-14-14-14-14-14-7-7-6-6-----------|
C|---11-11-11-11-11-11-11-14-14-14-14-14-7-7-6-6-----------|
P.M  .  .  .  .  .  .  .  .  .  .  .  .  . . . .
Bring me your finest wine...

and repeat 4x ..after that play:

  (Figure 3)
D|--------------------------------------------------------------------|
A|--------------------------------------------------------------------|
F|--------------------------------------------------------------------|
C|---11-11-11-11-11-11-11-11-11-9-9-9-4-4-4-4-6-7-7-7-7-7-7-7-7-7-----|
G|---11-11-11-11-11-11-11-11-11-9-9-9-4-4-4-4-6-7-7-7-7-7-7-7-7-7-----|
C|---11-11-11-11-11-11-11-11-11-9-9-9-4-4-4-4-6-7-7-7-7-7-7-7-7-7-----|
Fill my mug, I just want to....

D|--------------------------------------------------------------------|
A|--------------------------------------------------------------------|
F|--------------------------------------------------------------------|
C|---6-4-4-4-8-8-8-8-8-8-8-8------------------------------------------|
G|---6-4-4-4-8-8-8-8-8-8-8-8------------------------------------------|
C|---6-4-4-4-8-8-8-8-8-8-8-8------------------------------------------|
....forget

D|--------------------------------------------------------------------|
A|--------------------------------------------------------------------|
F|--------------------------------------------------------------------|
C|---11-11-11-11-11-11-11-11-11-9-9-9-4-4-4-4-6-7-7-7-7-7-7-7-7-7-----|
G|---11-11-11-11-11-11-11-11-11-9-9-9-4-4-4-4-6-7-7-7-7-7-7-7-7-7-----|
C|---11-11-11-11-11-11-11-11-11-9-9-9-4-4-4-4-6-7-7-7-7-7-7-7-7-7-----|
All the troubles and fighting And the ghosts in my ........

D|--------------------------------------------------------------------|
A|--------------------------------------------------------------------|
F|--------------------------------------------------------------------|
C|---6-4-4-4-2-2-2-7--------------------------------------------------|
G|---6-4-4-4-2-2-2-7--------------------------------------------------|
C|---6-4-4-4-2-2-2-7--------------------------------------------------|
.......head.......

repeat this 2x then...

  (figure 4)
D|----------------------------------------------|
A|----------------------------------------------|
F|----------------------------------------------|
C|---11-11-11-7-7-7-7-7-9-9-9-4-4-4-4-4---------|
G|---11-11-11-7-7-7-7-7-9-9-9-4-4-4-4-4---------|
C|---11-11-11-7-7-7-7-7-9-9-9-4-4-4-4-4---------|
No need to ruin the future......

D|----------------------------------------------|
A|----------------------------------------------|
F|----------------------------------------------|
C|---11-11-11-7-7-7-7-4-4-6-7-7-7-7-------------|
G|---11-11-11-7-7-7-7-4-4-6-7-7-7-7-------------|
C|---11-11-11-7-7-7-7-4-4-6-7-7-7-7-------------|
Let's live the moment....

D|----------------------------------------------|
A|----------------------------------------------|
F|----------------------------------------------|
C|---11-11-11-7-7-7-7-7-9-9-9-4-4-4-4-4---------|
G|---11-11-11-7-7-7-7-7-9-9-9-4-4-4-4-4---------|
C|---11-11-11-7-7-7-7-7-9-9-9-4-4-4-4-4---------|
It's our time we are not going to waste it.....

D|----------------------------------------------|
A|----------------------------------------------|
F|----------------------------------------------|
C|---11-11-11-7-7-7-7-4-4-4-2-2-2-7-------------|
G|---11-11-11-7-7-7-7-4-4-4-2-2-2-7-------------|
C|---11-11-11-7-7-7-7-4-4-4-2-2-2-7-------------|
The morning seems like torment....

After that, there comes in another distortion
it is the same like figure 3 but as I plugged in
the distortion I tried to play it but it's sounds
like shit so I play:

D|---------------------------------------------------------------------|
A|---------------------------------------------------------------------|
F|---------------------------------------------------------------------|
C|-6-6-6-6-6-6-6-6-6-4-4-4-4-4-4-4-6-2-2-2-2-2-2-2-2-2-6-4-4-4-4-4-4-4-|
G|-4-4-4-4-4-4-4-4-4-2-2-2-4-4-4-4-6-0-0-0-0-0-0-0-0-0-6-4-4-4-2-2-2-2-|
C|-------------------------4-4-4-4-6-------------------6-4-4-4---------|
repeat x3
then
(Figure 4) x 1
(Figure 1) to the End

That's it :)


+--------------------------------------------------------------------------+
| This file is the author's own work and represents their interpretation   |
| of the song. You may only use this file for private study, scholarship,  |
| or research.                                                             |
+--------------------------------------------------------------------------+

  Visit MetalTabs.com for more metal tablature

bottom separator

Contact Us | Privacy Policy | Disclaimer | Legal Notice
Copyright © 2001-2014 MetalTabs.com. All Rights Reserved.